Acordes de Guitarra » G »Grupo Guinda » Amor Incomparable (Tab)

Amor Incomparable
Grupo Guinda

Letras, Acordes y Tabs para Guitarra, Bajo y Ukulele

  • e|---5-5-3-5-3-5--6/5-3-------------------|
    B|----------------------6-5-6-6-6-5-6-5-6-|
    G|--5-------------------------------------|
    D|----------------------------------------|
    A|----------------------------------------|
    E|----------------------------------------|
    
         F                  Dm             A#            C
    e|----8-8--8----8-8--8---5-5-5--5-5-5--6-6-6--6-6-6--8-8-8-10/8-10/8--|
    B|---10-10-10--10-10-10--6-6-6--6-6-6--6-6-6--6-6-6--8-8-8-----8----8-|
    G|-10--------10---------7------7------7------7------9-----------------|
    D|--------------------------------------------------------------------|
    A|--------------------------------------------------------------------|
    E|--------------------------------------------------------------------|
    
                      F                  Dm
    Esta noche de amargura quiero embriagarme
          A#                  C
    e|-----------------------------------------------|
    B|--6-8/6-8-8/6-6-8/6-----8-10/8-10-10/8-8-10/8--|
    
  • +
    ¡Colabora con nosotros!
    Envíanos tu versión de esta canción

Letra de Amor Incomparable
Esta noche de amargura quiero embriagarme
de pena de pena por una mujer
no es que trate de olvidarla pues tomando tomando
ni noches enteras no la olvidare B:-8/10-8/10-8/10-8/10--
si... mi amor siempre llorare
mi amor..mi amor se que sufrire...
nooo... no puedo olvidarla solo recordarla fue mi gran querer...
no no no no , no puedo olvidarla solo recordarla fue mi gran amor
(repite todo)
JJCM




[Amor Incomparable chords][Amor Incomparable cifra]
© LaCuerda.net · aviso legal · privacidad · es · en · pt · contacto
DINAMICO