Acordes de Guitarra » G »Grupo Guinda » Cerveza, ron y guinda (Tab)

Cerveza, ron y guinda
Grupo Guinda

Letras, Acordes y Tabs para Guitarra, Bajo y Ukulele

  • E|-------------------3-3--5-5--3-3h5h3---|
    B|---3-3-3--1-3-3/4--4-4--6-6--4-------3-|
    G|---3-3-3--2-4-4/5----------------------| x2
    D|-5-------------------------------------|
    A|---------------------------------------|
    E|---------------------------------------|
    
    E|---15-13-13/15---15-13-13/15----------------------------------|
    B|-15------------15-----------15---11-13-13/15-13/15-13h15h13---|
    G|-------------------------------12--------------------------12-|
    D|--------------------------------------------------------------|
    A|--------------------------------------------------------------|
    E|--------------------------------------------------------------|
    
    E|---15-13-13/15---15-13-13/15--------(10)-10-10-10-10-(10)-----|
    B|-15------------15-----------15---11-(13)-13-13-13-13-(13)-----|
    G|-------------------------------12-------------------------12--|
    D|--------------------------------------------------------------|
    A|--------------------------------------------------------------|
    E|--------------------------------------------------------------|
    
  • +
    ¡Colabora con nosotros!
    Envíanos tu versión de esta canción

Letra de Cerveza, ron y guinda
Con una cerveza B:-11-10h11h10--10-11- y otra cerveza e:-11-10-9-10-11-
trate de olvidar pero inutil fue a esa mujer
como mi dolor desde que se fue si esa mujer
(Repite intro y estrofa)
Nunca yo trate buscar otro amor para olvidarla
quise que ella fuera primera y unica en mi vida
Oooh ya me canse de sufrir y de llorar tomare una cerveza y un amoooor
Oooh ya me canse de sufrir y de llorar tomare una cerveza y un amor
Repite estrofa y coros
.
JJCM




[Cerveza, ron y guinda chords][Cerveza, ron y guinda cifra]
© LaCuerda.net · aviso legal · privacidad · es · en · pt · contacto
DINAMICO