Acordes de Guitarra » G »Grupo Femenino Bolivia » Nostalgias (Tab)

Nostalgias
Grupo Femenino Bolivia

Letras, Acordes y Tabs para Guitarra, Bajo y Ukulele

  •        LA         
    como si el viento adivinara
      LA 
    de la nostalgia que me ambarga 
    
    RE LA RE LA FA FA 
    
    RE                  LA 
    son tus recuerdos y estan 
    RE             LA 
    matandole a mi corazon   
    FA
    la peor es que no puedo olvidar 
    FA 
    en la distancia me desespero mas 
    
    RE              LA 
    vuelve mi llanto a caer 
    RE              LA 
    abrazando esta mi soledad
    
  • e|-5-----------------|
    B|-5-----------------|
    G|-5-----------------|
    D|-7-----------------|
    A|-7-----------------|
    E|-5-----------------|
    
                     de la nostalgia que me embarga
    e|-7-8-7-5-4-5-------|
    B|-------------------|
    G|-7-9-7-5-4-5-------|
    D|-------------------|
    A|-------------------|
    E|-------------------|
    
       REm            LAm    REm            LAm
    e|-------------------|--------------------------|
    B|-5h6---------------|-5-5h6--------------------|
    G|-----7-7-7p5-------|-------7-7-7p5------------|
    D|-------------7-5-7-|---------------7-5-7------|
    
  • +
    ¡Colabora con nosotros!
    Envíanos tu versión de esta canción

Letra de Nostalgias
como si el viento adivinara
de la nostalgia que me ambarga
son tus recuerdos y estan
matandole a mi corazon
la peor es que no puedo olvidar
en la distancia me desespero mas
vuelve mi llanto a caer
abrazando esta mi soledad
mi vida no tiene razon
sin ti nose a donde voy
como si el viento adivinara
de la nostalgia que me anbarga
sola frente a este mundo
sola y con todos tus recuerdos
no me resigno a perder tu amor
sabes no quiero perderte
te mil veces te amo

espero que los guste
esto va dedicado una érsona muy especial
para ti ELI con mucho amorrrrrrrrrr

Video de Nostalgias
[]




[Nostalgias chords][Nostalgias cifra]
© LaCuerda.net · aviso legal · privacidad · es · en · pt · contacto