Acordes de Guitarra » G »La Gran Calabaza » Gotas Frías (Tab)

Gotas Frías
La Gran Calabaza

Letras, Acordes y Tabs para Guitarra, Bajo y Ukulele

  •     D   Dma7   D      G
    e--5-5-5-5-5-5-5-5--3-3-3-3-3---
    B--7-7-7-7-7-7-7-7--3-3-3-3-3---
    G--7-7-6-6-7-7-7-7--4-4-4-4-4---  * 2
    D--7-7-7-7-7-7-7-7--5-5-5-5-5---
    A--5-5-5-5-5-5-5-5--5-5-5-5-5---
    E-------------------3-3-3-3-3---
    
     Ritmo Ska
    e--x---v---x---v---x---v---x---v---x---v---x
    B--x---v---x---v---x---v---x---v---x---v---x
    G--x---v---x---v---x---v---x---v---x---v---x
    D--x---v---x---v---x---v---x---v---x---v---x
    A--x---v---x---v---x---v---x---v---x---v---x
    E--x---v---x---v---x---v---x---v---x---v---x
    
    
      Em                      A
    Es diferente vivir entre la gente
     D                   Bm
    
  • +
    ¡Colabora con nosotros!
    Envíanos tu versión de esta canción

Letra de Gotas Frías
Ritmo Ska
Es diferente vivir entre la gente
Que ves, pero no sentis
No es accidente esconderse
a veces duele eeh ya me ha pasado a mi
Para que brindas por tonterias
que con un trago se van
las gotas frias que quedan
las olvidas y todo el mundo se va
Tapaste todo lo que habia
si ir mas lejos vencerias wooo y es que...
(Lo mismo de los versos anteriores)
Es diferente vivir entre la gente
Que ves, pero no sentis
No es accidente esconderce
a veces duele
ya me ha pasado a mi
Para que brindas por tonterias
que con un trago se van
las gotas frias que quedan
las olvidas y todo el mundo se va
Perdi las fuerzas con su vida
y llegaste al ??? la vida
wooo y es que...
Es diferente vivir entre la gente
Que ves, pero no sentis
No es accidente esconderce
a veces duele
ya me ha pasado a mi
Para que brindas por tonterias
que con un trago se van
las gotas frias que quedan
las olvidas y todo el mundo se va
Si les conviene se estan
y gritan hasta llorar
por ti
Si les conviene se estan
y brindan hasta lloooorar...

Video de Gotas Frías
[]




[Gotas Frías chords][Gotas Frías cifra]
© LaCuerda.net · aviso legal · privacidad · es · en · pt · contacto