Tab p/Bajo de Gondwana: Sentimiento original
Gondwana  corregir
desconocido
Primer Riff:
D|-----------------------------|--------------------------------|
G|-------2-4-------------------|--------2-4---------------------|
A|-222-5-------0-444----1-2-52-|-2222-5-------0-444----1-2-5222-|
E|-------------------22--------|--------------------22----------|

Versos:
D|------------------------------|--------------------------------|
G|-------2-4--------------------|--------2-4---------------------|
A|-2222-5-------0-444----1-2-52-|-2222-5-------0-444----1-2-5222-|
E|--------------------22--------|--------------------22----------|

Primer Coro:
D|-------|-------------|-------------|-------------|--------------|
G|-------|-------------|-------------|-------------|---535--------|
A|-0-10\-|-------7-5---|-------5-3---|-------7-5---|-------5353-0-|
E|-------|-5-555-----5-|-3-333-----3-|-5-555-----5-|-3------------|

D|-------------|-------------|
G|-------------|-------------| 
A|-------7-5---|-------5-3---|x3
E|-5-555-----5-|-3-333-----3-|

D|-------------|--------------|-------------|-------------|
G|-------------|---3h5---3h5--|-------------|-------------|
A|-------7-5---|--------------|-------7-5---|-------5-3---|
E|-5-555-----5-|-3-----3-----3|-5-555-----5-|-3-333-----3-|

D|-------------|-----|
G|-------------|-----|
A|-------7-5---|-10\-|
E|-5-555-----5-|-----|

El Segundo coro es igual pero sin la 3º parte del Primer coro.
Este fichero es trabajo propio de su transcriptor y representa su interpretación personal de la canción. El material contenido en esta página es
para exclusivo uso privado, por lo que se prohibe su reproducción o retransmisión, así como su uso para fines comerciales.
© LaCuerda.net · aviso legal · privacidad · contacto