Acordes de Guitarra » G »Gondwana » Sentimiento original (Tab)

Sentimiento original
Gondwana

Letras, Acordes y Tabs para Guitarra, Bajo y Ukulele

  • Riff1 : Si-Lam
    Coro : Si-Do
    
    Riff1
    Quiero escapar contigo a algún lugar
    me apesta esta ciudad
    todo, todo es tan típico exepto tú
    la vida me enseño a ser 
    natural y honesto
    ver el mundo desde un plano espiritual
    ahora sólo busco un amor verdadero
    mis errores ya los tuve que pagar
    
    Riff1
    Escapo al ría, ahí marihuana puedo fumar 
    si tú vienes conmigo yo resistiré
    a meditar sobre música
    y pensar en dios
    tu piel morena me da inspiración
    música reggae que puedes cantar
     '       '     '   '     bailar
     '       '     '   te hace pensar
    
    Coro 
    Tu sabes que es verdad
    tu sabes que el amor existe 
    tu sabes que es verdad
    el sentimiento original
    tu sabes que es verdad si, 
    tu lo sabes bien
    sabes que es verdad
    lo sabes, lo sabes, lo sabes bien...
  •           F#m             Bm              F#m             Bm      
    e|------------------------------|---------------------------------|
    B|------------------------------|---------------------------------|
    G|------------------------------|---------------------------------|
    D|-------2-4--------------------|--------2-4----------------------|
    A|-222-5-------2-4444----0-2-52-|-222--5-------2-4444----0-2-5222-|
    E|-------------------22---------|--------------------22-----------|
    
    :INICIO
    Bm                   F#m 
      tu sabes que es verdad,
                           Bm
    tu sabes que el amor existe 
                       F#m
    tu sabes que es verdad,
                       Bm
    el sentimiento original.
    
    SE REPITEN LOS ACORDES
    Tu sabes que es verdad, siiii
    
  •           F#m             Bm
    e|----------------------------------|
    B|----------------------------------|
    G|----------------------------------|
    D|------0-2-4------------------0----|
    A|-222---------2-4444--00--0-2---2--|
    E|----------------------------------|
    
    INICIO
    Bm                   F#m
      tu sabes que es verdad,
                           Bm
    tu sabes que el amor existe
                       F#m
    tu sabes que es verdad,
                       Bm
    el sentimiento original.
    
    SE REPITEN LOS ACORDES
    Tu sabes que es verdad, siiii
    
  • Primer Riff:
    D|-----------------------------|--------------------------------|
    G|-------2-4-------------------|--------2-4---------------------|
    A|-222-5-------0-444----1-2-52-|-2222-5-------0-444----1-2-5222-|
    E|-------------------22--------|--------------------22----------|
    
    Versos:
    D|------------------------------|--------------------------------|
    G|-------2-4--------------------|--------2-4---------------------|
    A|-2222-5-------0-444----1-2-52-|-2222-5-------0-444----1-2-5222-|
    E|--------------------22--------|--------------------22----------|
    
    Primer Coro:
    D|-------|-------------|-------------|-------------|--------------|
    G|-------|-------------|-------------|-------------|---535--------|
    A|-0-10\-|-------7-5---|-------5-3---|-------7-5---|-------5353-0-|
    E|-------|-5-555-----5-|-3-333-----3-|-5-555-----5-|-3------------|
    
    D|-------------|-------------|
    G|-------------|-------------| 
    A|-------7-5---|-------5-3---|x3
    E|-5-555-----5-|-3-333-----3-|
    
    D|------
  • Aqui les va el bajo de una de las mejores canciones de Gondwana ... a tocar..
    
    h= hammer
    
    Intro 
    
    G|----------------------------------------|
    D|-------2-4------------------------------|
    A|-2-2-5----------4-4-4-4--------0-2--5-2-|
    E|-------------2------------2-2-----------|
    
    G|----------------------------------------------|
    D|-------------2-4------------------------------|
    A|----2-2-2-5-----------4-4-4-4--------0-2--5-2-|
    E|-2-----------------2------------2-2-----------|
    
    Coro (Igual al intro)
    
    Sabes que es verdad, tú sabes que el amor existe
    Sabes que es verdad, el sentimiento original 
    Sabes que es verdad, si
    Tú lo sabes bien 
    Tu sabes que es verdad, lo sabes, lo sabes, lo sabes bien...
    
    
    Verso
    
    G|--------------------|-------------------|
    D|-----------2--------|----------0--------|
    A|-0--0-0-0----4-0----|------------2----0-|
    E|------------------3-|-3-3-3--------3----|
    
    
    Quiero escapar contigo a algún lugar... me apesta esta ciudad
    
    G|-------------
  • +
    ¡Colabora con nosotros!
    Envíanos tu versión de esta canción






[Sentimiento original chords][Sentimiento original cifra]
© LaCuerda.net · aviso legal · privacidad · es · en · pt · contacto