Acordes de Guitarra » G »Gondwana » Pequeña Dama (Tab)

Pequeña Dama
Gondwana

Letras, Acordes y Tabs para Guitarra, Bajo y Ukulele

  • E|-----------------|
    A|--0-2-4-2----4-5-|
    D|-----------------|
    G|-----------------|
    B|--2-3-5-3--------|
    e|-------------4-5-|
    
    D - C#m - Bm - C#m
    D - C#m - G - D - E - Bm
    
    
                       C#m   Bm
    Cómo estas pequeña dama?
                      C#m    Bm
    que bueno tenerte aqui..
                       C#m   D
    he puesto bella la mesa
                     E       Bm
    para que puedas venir...
    
    
  • Intro
    
    G||------------------|------------------|
    D||--0---------------|--0--------------2|
    A||-----4--2--4-----4|-----4--3--3--2---|
    E||--------------4---|------------------|
    
    Como estas pequeña dama...
    
    G||-------------------------|-------------------------|
    D||-------------------2-2---|-------------------6-6---|
    A||--2--2-----2-2--2-------2|--4--4-----4-4--4-------4| x3
    E||--------2----------------|--------4----------------|
    
    Para que puedas venir...
    
    G||-------------------------|-------------------------|
    D||-------------------7-7---|-------------------9-9---|
    A||--5--5-----5-5--5-------5|--7--7-----7-7--7-------7|
    E||--------5----------------|--------7----------------|
    
    Esperaba este momento...
    
    G||-------------------------|-------------------------|
    D||-------------------2-2---|-------------------6-6---|
    A||--2--2-----2-2--2-------2|--4--4-----4-4--4-------4| x3
    E||--------2----------------|--------4----------------|
    
    
    De sentirnos nuestros cuerpos...
    
    G||------------------------
  • +
    ¡Colabora con nosotros!
    Envíanos tu versión de esta canción

Letra de Pequeña Dama
Cómo estas pequeña dama?
que bueno tenerte aqui..
he puesto bella la mesa
para que puedas venir...
esperaba este momento
de brindarte mi alimento
de mirarnos a la cara
de sentirnos nuestros cuerpos
arranca de tu piel
aquel vestido de papel
dejame verte alegre amor...
atras otro quedo
bajo el susuro de tu voz
tu vida otro rumbo tomó...
espero estes contenta
supe que te quedaras
aunque mucho no tenemos
todo se compartirá
como estas pequeña dama?
puedo darte de mi dicha
tenerte llenó mi alma
mi espirutu ha volado
para quedar a tu lado
para quedar a tu lado
arranca de tu piel
aquel vestido de papel
dejame verte alegre amor...
atras otro quedo
bajo el susuro de tu voz
tu vida otro rumbo tomó...
arranca de tu piel
aquel vestido de papel
dejame verte alegre amor...
atras otro quedo
bajo el susuro de tu voz
mi vida otro rumbo tomó...
Eso es todo... si esta mal pues ni modo
(no es cierto, xfa avisen)
salu2
ダイアナI愛




[Pequeña Dama chords][Pequeña Dama cifra]
© LaCuerda.net · aviso legal · privacidad · es · en · pt · contacto
DINAMICO