Acordes de Guitarra » G »Gondwana » Mejor que intentes otra vez (Tab)

Mejor que intentes otra vez
Gondwana

Letras, Acordes y Tabs para Guitarra, Bajo y Ukulele

  • C         D         Em
    Na na na na na na…..na na na na
    C         D
    Na na na na na na….
    
    (1)
    G         D   Em         C
    Oscureció tu día una simple sombra
    G         D   Em         C
    No tuviste el valor de arriesgar de luchar
    G         D   Em         C
    La fe voló y se hizo un problema el dolor
    G   D      Em
    Ooooo…. tu risa se quebró el primer golpe
    
    (2)
    C         D      Em
    Toda esa teoría dedujo
    C         D            Em
    Que una mirada fría y la destrucción como solución
    
  • Oscurecio tu dia...
    
    G||-----------0---------|----------------------------| -|-
    D||--------0-----4--0---|-----2--0--2----------------|  |
    A||-----2--------------2|--2-----------3--2---3------|  |
    E||--3------------------|------------------------3--0|  |
                                                            | X2
    G||---------------------------|                         |
    D||---------------------------|                         |
    A||---------------------------|                         |
    E||--0--3--3--3--3--2--2--2--0|                        -|-
    
    Toda esta teoría dedujo...
    
    G||---------------|------------|--999---------999------|
    D||--------------0|--0--------0|--------9----------9---|
    A||--3--------3---|-----0--0---|-----------7----------7|
    E||-----3--3------|------------|-----------------------|
    
    G||---------------|------------|
    D||--------------0|--0--------0|
    A||--3--------3---|-----0--0---|
    E||-----3--3------|------------|
    
    
    G||--999------------------------|------------------|
    D||---
  • +
    ¡Colabora con nosotros!
    Envíanos tu versión de esta canción

Letra de Mejor que intentes otra vez
Na na na na na na…..na na na na
Na na na na na na….
(1)
Oscureció tu día una simple sombra
No tuviste el valor de arriesgar de luchar
La fe voló y se hizo un problema el dolor
Ooooo…. tu risa se quebró el primer golpe
(2)
Toda esa teoría dedujo
Que una mirada fría y la destrucción como solución
Sigue hacia delante y ten fe
Que nada se encuentra sin buscar
Que nada se gana sin jugar
Mejor que intentes otra vez
Nada fácil se hizo fuerte
Mejor que intentes otra vez
Mejor que intentes otra vez
Si es el límite de mente
Mejor que intentes otra vez
(1)
Acaso deberá pasar tanto tiempo
Para darse cuenta que se comprobó una señal
De cada mal que paso no fue nunca el fin solo al futuro preparo
Uo uo uooo yeah
(2)
Jah Jah nunca nos abandono
En el haya creido sentir esa fuerza no entendió
Sintiendo con calma el corazón
Si puede saber siempre hay más luz que esta sombra
Mejor que intentes otra vez
Nada fácil se hizo fuerte
Mejor que intentes otra vez
Mejor que intentes otra vez
Si es el límite de mente
Mejor que intentes otra vez




[Mejor que intentes otra vez chords][Mejor que intentes otra vez cifra]
© LaCuerda.net · aviso legal · privacidad · es · en · pt · contacto
DINAMICO