Acordes de Guitarra » G »Gondwana » Divina Verdad (Tab)

Divina Verdad
Gondwana

Letras, Acordes y Tabs para Guitarra, Bajo y Ukulele

  •     LAm            REm
    son tantos los años que
         DO                       SOL
    han cubierto con un manto de dudas
       LAm              REm
    imponiendonos reglas que
            DO                 SOL
    nos convertian en esclavos del temor
         LAm                   REm
    el miedo, frustacion y el dolor
       DO                  SOL
    babylon no qiere qe seamos mejor
           LAm                 REm
    por que su filosofia es injusta
          DO                    SOL
    su ideología y doctrinas asustan
    
        LAm                       FA
    la verdad qe han tenido escondida
             DO                  SOL
    
  • Intro y empieza...
    
    G||------------------------------|----------------| -|-
    D||--2--2--0-----------2--3--3--3|--2--2---0------|  |
    A||-----------3--0--3------------|------------3--0|  |
    E||------------------------------|----------------|  |
                                                         |x6
    G||-----------------------0|                         |
    D||-----0--0-----------0---|                         |
    A||--3--------3--0--3------|                         |
    E||------------------------|                        -|-
    
    
    La verdad que han tenido escondida...
    
    G||----------------------------|------------------------------|
    D||-----2--0------------3--3--0|-----2--0-----------0---------|
    A||--0---------3--0--3---------|--0--------3--0--3------------| x4
    E||----------------------------|-----------------------3--3--3|
    
    
    Despierta de este eterno letargo...
    
    G||------------------------------|----------------| -|-
    D||--2--2--0-----------2--3--3--3|--2--2---0------|  |
    A||-----------3--0--3----------
  • +
    ¡Colabora con nosotros!
    Envíanos tu versión de esta canción

Letra de Divina Verdad
son tantos los años que
han cubierto con un manto de dudas
imponiendonos reglas que
nos convertian en esclavos del temor
el miedo, frustacion y el dolor
babylon no qiere qe seamos mejor
por que su filosofia es injusta
su ideología y doctrinas asustan
la verdad qe han tenido escondida
es qe la luz de tu alma es divina
la verdad qe han tenido escondida
es qe la luz de tu alma es divina
por siglos de los siglos nos esconden la verdad
divina verdad
despierta de este eterno letargo
y toma el camino en tus manos
disfruta del hermoso destino
qe jah jah nos tiene preparado
esa luz de la qe tu formas partes
por qe tu y yo somos hermanos
babylon se a encargado de ocultarnos
qe jah jah siempre brilla en nuestro corazon
la verdad qe han tenido escondida
es qe la luz de tu alma es divina
la verdad qe han tenido escondida
es qe la luz de tu alma es divina
son tantos los años qe
han cubierto con un manto de dudas
imponiendonos reglas qe
nos convertian en esclavos del temor
del miedo, frustacion y el dolor
babylon no qiere qe seamos mejor
por qe su filosofia es injusta
su idiologia y doctrinas asustan
la verdad qe han tenido escondida
es qe la luz de tu alma es divina
la verdad qe han tenido escondida
es qe la luz de tu alma es divina oooh
divina verdad
esa es la luz de jah
divina verdad
la verdad qe han tenido escondida
es qe la luz de tu alma es divina
espero q les ayude ..... y q ayude con su mensaje..... saludos
misioneros!! ;)




[Divina Verdad chords][Divina Verdad cifra]
© LaCuerda.net · aviso legal · privacidad · es · en · pt · contacto
DINAMICO