Acordes de Guitarra » G »Gianluca Grignani » Que haces tú? (Tab)

Que haces tú?
Gianluca Grignani

Letras, Acordes y Tabs para Guitarra, Bajo y Ukulele

  • G                           C
    Cuantas veces ya yo mismo he dicho
    Em                          G
    que lo dejo todo y que me iría
    Em                      C
    debe haber un maldito sitio
    Em                        D
    como extraño yo la casa mía.
    
    G                                C
    Tantos logros gran poder que importan
    Em                          G
    donde no hay coraje no hay valor
    *G   D   Em
     o no se ve.
    
    Em                            C
    sabes que el llegar no cuesta tanto
    Em            *G   D   Em
    lo difícil es permanecer
    
  • e----------------------------------1-----1--------------------3---------------
    b-------3------3-------3-------3----------------3-----------3--------3--------
    g-----0------0-------0-------2---------0------2-----------0--------0----------
    D---4------4-------4-------4---------2------0-----0h2h0---------3-----0h2h0---
    A----------------2-------2---------3------------------------------------------
    E-3------3----------------------------------------------3---------------------
    
    
    E-|--------3-------------3--------------------3-------------------
    B-|------3-------------3-----------------1--------1---------------
    G-|----0-------------0-----------------0---0----0---0-------------
    D-|---------------------------------------------------------------
    A-|---------------------------------0-----------------------------
    E-|--3-------------3----------------------------------------------
        Cuantas veces ya yo mismo he dicho
    
    E-|--------2------------2----------------3-----------------------------
    B-|------3------------3------------------------------------------------
    G-|----2------------2-----------------0--------------------------------
    D-|--0------------0------------------0---------------------------------
    
  •                    G1                       C             C7
                           
    E--------------------------------------|--0-----|-0-----------------|
    B--------3------------------3----------|----1---|---3---------------|
    G------0-----0---0--------0-----0---0--|------0-|-----0-------0-----|
    D----4---------4--------4---------4----|--------|-----------2----2--|
    A---------------------2----------------|--------|---------3---------|
    E--3-----------------------------------|--------|-------------------|
    
                   Am                G
    
    E-------0-------3-------------|-----|
    B---------1---1---1------1----|-----|
    G-----------2----------2---2--|-----|
    D----2------------------------|-----|
    A--0-----------------0--------|-----|
    E-----------------------------|--0--|
    
    
    
    
  • +
    ¡Colabora con nosotros!
    Envíanos tu versión de esta canción

Letra de Que haces tú?
Cuantas veces ya yo mismo he dicho
que lo dejo todo y que me iría
debe haber un maldito sitio
como extraño yo la casa mía.
Tantos logros gran poder que importan
donde no hay coraje no hay valor
o no se ve.
sabes que el llegar no cuesta tanto
lo difícil es permanecer
Que haces tu?
Para mantenerte en pie sin decaer
que haces tu?
Para discutir y no desfallecer?
yo que muero en el intento sabes que
estoy nervioso estoy ansioso
pero bien
Cuantas veces ya yo mismo he dicho
hoy yo pago todo y sigo aquí
hoy no me levanto de la cama
hasta el viernes yo me que quedo aquí
Para cada desicion su prueba
una calle larga estrecha caminaré
tan empinada, tan extrema,
me la encuentro de frente
y siempre tu…
Que haces tu?
Para mantenerte en pie sin decaer
que haces tu?
Para discutir y no desfallecer?
yo que muero en el intento sabes que
estoy nervioso estoy ansioso
pero bien.* G D Em
*para el final rematas con 1 solo rasgueo hacia abajo
con cada nota.
Dedicada a esa señito que me quiere tanto,
y que amo tanto.
para ale mi novia velcro.




[Que haces tú? chords][Que haces tú? cifra]
© LaCuerda.net · aviso legal · privacidad · es · en · pt · contacto
DINAMICO