Acordes de Guitarra » G »Generación 12 » Eres Santo (Tab)

Eres Santo
Generación 12

Letras, Acordes y Tabs para Guitarra, Bajo y Ukulele

  • Intro: G#m - E - B - F# (X2)
    
    
    B            F#         G#m
     Hay Gratitud en mi corazón
               E                B
    Abro mis labios en adoración
               F#          G#m
    mi redentor mi único Dios
                  E
    Tu vida ofrendaste solo por amor
    
    
    Pre Coro
    
    G#m          E
    Hoy me postro Hoy me rindo
    B            F#
    Ven y toma tu lugar
    G#m                    E
    
  •    B                F#
    Hay Gratitud en mi corazón
         G#m         E
    Abro mis labios en adoración
        B                F#
    mi redentor mi único Dios
       G#m                 E
    Tu vida ofrendaste solo por amor
    
    
    Pre Coro
    
    G#m               E
    Hoy me postro Hoy me rindo
    B             F#
    Ven y toma tu lugar
    G#m                                E
    Haz de mi vida un altar Vive en tu Santidad
    B                     F#
    y que siempre te pueda adorar
    
  • e-----------------      E------------
    a-----------------      d------------
    d----------------- (X3) a---------11-
    g-----------------      g------11----
    b-----------------      b-12-11------
    e-7v--s---14v-s7--      e------------
    
    
    e----------------------------------
    a-----4------4-----6------9------9-
    d-(x4)4--(x4)3-(x4)4--(x4)9-(x4)-8-
    g----------------------------------  esto hace en toda la cancion
    b----------------------------------
    e----------------------------------
    
    esto es antes de entrar al coro
    e--------------------------------------------
    d--------------------------------------------
    a--------------------------------------------
    g----------------------------------------------4--4--4--4
    
  • e-14----------14---------12-11-------------------
    B-------12----------12-----------12--12-11-------
    G------------------------------------------11----X2
    D--------------------------------------------11--
       B                F#
    Hay Gratitud en mi corazón
         G#m         E
    Abro mis labios en adoración
        B                F#
    mi redentor mi único Dios
       G#m                 E
    Tu vida ofrendaste solo por amor
    
    Pre Coro
    
    G#m               E
    Hoy me postro Hoy me rindo
    B             F#
    Ven y toma tu lugar
    G#m                                E
    
  • +
    ¡Colabora con nosotros!
    Envíanos tu versión de esta canción

Letra de Eres Santo
Hay Gratitud en mi corazón
Abro mis labios en adoración
mi redentor mi único Dios
Tu vida ofrendaste solo por amor
Pre Coro
Hoy me postro Hoy me rindo
Ven y toma tu lugar
Haz de mi vida un altar Vive en tu Santidad
y que siempre te pueda adorar
Eres real y hoy te puedo sentir dentro de mí
Siento tu Sangre hoy q lava mi ser, Vuelvo a nacer
Interludio
Eres santo eres santo eres santo DIOS
Eres santo eres santo eres santo DIOS
espero que les ayude es una hermosa cancion
LO CUAL SIRVE PARA ADORAR Y MINISTRAR Dios le bendiga
cualquier cosa me avisan
me envian un mensaje a mi correo
y visiten mi canal de youtube: http://www.youtube.com/Albertrojasg12
hay varias canciones de genercion 12 tocadas jeje DTB.




[Eres Santo chords][Eres Santo cifra]
© LaCuerda.net · aviso legal · privacidad · es · en · pt · contacto
DINAMICO