Acordes de Guitarra » G »Gazpacho » Arbol rojo (Tab)

Arbol rojo
Gazpacho

Letras, Acordes y Tabs para Guitarra, Bajo y Ukulele

  • (INTRO): Bm, F#m, A, Bm
    
    Recomiendo ejecutar los acordes de la siguiente manera:
    
      Bm                  F#m                 A
    
    E-||-7----          E-||-2----          E-||-5----
    B-||-7----          B-||-2----          B-||-5----
    G-||-7----          G-||-2----          G-||-6----
    D-||-9----          D-||-4----          D-||-7----
    A-||-9----          A-||-4----          A-||-7----
    E-||-7----          E-||-2----          E-||-5----
    
    
    (Los acordes en 5ta son los mismos que estos de arriba
    pero solo hacemos sonar la 4ta, 5ta, y 6ta cuerda para darle
    ese toque pesado que tiene el tema en el estribillo... :)
    
    
           Bm                   F#m
    
  • Intro guitarra 1
    
    |---------2-----2-----2----------------2------2------------------------------------2------2---|
    |-------3--3------------3----------------2-----------2-3-2--3-2-0-2-0--------3---3------------|
    |-----4------4-----4------4--------2------2--------2------2-------------------4------4--------|
    |---4-------------4----------------4---------------2---------------------------4--------------|
    |-2-------------------------------4---------------0---------------------------2---------------|
    |--------------------------------2------------------------------------------------------------|
    guitarra 2  (esto se hace con la intro de la guitarra 1)
    |-------------------------------------------------------------------------------------|
    |-------------------------------------------------------------------------------------|
    |-------------------------------------------------------------------------------------|
    |--9---7h9----11-----9h11p9----------------------------------------------
  • +
    ¡Colabora con nosotros!
    Envíanos tu versión de esta canción

Letra de Arbol rojo
Recomiendo ejecutar los acordes de la siguiente manera:
(Los acordes en 5ta son los mismos que estos de arriba
pero solo hacemos sonar la 4ta, 5ta, y 6ta cuerda para darle
ese toque pesado que tiene el tema en el estribillo... :)
Sus almas son hoy dos almas rojas
y es su corazon el que esta verde
hay que percibir, es cuestion de sentir
la conexion que se desvanece
es cuestion de vivir el libro del gran escritor
Seguir sus huellas y si es necesario chocar-las
en esa gran pared a la que hoy llamamos mundo
(ESTRIBILLO):
Quien dice que el destino, es cosa de cuentos
quien dice que morir es cuestion de vivir
Se detuvieron a observar el arbol, el arbol rojo
se unieron y por supuesto jamas se desunio.
(En esta parte como en el intro pueden jugar con los acordes...!!!)
Nacieron los 2 en el mismo barrio no no no no, no no
No se puede escapar, a lo que ya fue escrito
los mismos olores, colores, rincones pasearon
saber hacia donde ir, pero nadie es tan sabio
Y poder nadar en sus versos escritos
le puse tinta al mirar ese cielo pintado con 10000 lunas
le puse tinta al mirar ese cielo pintado con 10000 lunas
(REPITE ESTRIBILLO)
(REPITE ESTRIBILLO)
Ooooh, Ahhh, Uo no no no nooo!!
le puse tinta al mirar ese cielo pintado con 10000 lunas
le puse tinta al mirar ese cielo... pintado con 10000...
lunaaaaaaaaaaaaaaaas aaah...
Que buen tema che... se lo dedico especialmente
a Jagger, un amigo... vamos viejo por mas!!!




[Arbol rojo chords][Arbol rojo cifra]
© LaCuerda.net · aviso legal · privacidad · es · en · pt · contacto
DINAMICO