Acordes de Guitarra » G »Gatillazo » Maldita Burguesía (Tab)

Maldita Burguesía
Gatillazo

  • Letra y Acordes
    E|------------------------------- Las 2 guitarras 2 veces,
    B|------------------------------- después una sigue kon D5
    G|-----7---7---7---7-7-7-7-7-7--- en palm mute
    D|-----7---7---7---7-7-7-7-7-7--- y la otra haze un punteo:
    A|-----5---5---5---5-5-5-5-5-5---
    E|-----5---5---5-----------------
    
    E|------------------------------
    B|----------8-----7------3------
    G|-------7-----5-----2----------
    D|------------------------------
    A|------------------------------
    E|------------------------------
    
    
    D5                  A#5      C5
    Maldita burguesía, maldita sociedad
    D5                A#5       C5
    Odio el dinero y toko por tokar
    D5                      A#5         C5
    
  • +
    ¡Colabora con nosotros!
    Envíanos tu versión de esta canción

Letra de Maldita Burguesía
Maldita burguesía, maldita sociedad
Odio el dinero y toko por tokar
Soy un tipo decadente, vendo mierda sin parar
El sistema me utiliza para despistar
Algun dia un tipo listo me tenia ke joder
Mañana mismo me matare
Después en las estrofas komo estas se alargan los akordes,
En el estribillo kedan igual
Después del primer estribillo hay una parte en la ke no kanta:
PM PM
PM
Y al final Hace los akordes largos de las estrofas y termina kon esto:
J o d e t e. .. j o d e t e
para lo ke sea: jorge_13_8@hotmail.com



© LaCuerda.net · aviso legal · privacidad · contacto