Acordes de Guitarra » G »Gatillazo » Eres Tú (Tab)

Eres Tú
Gatillazo

Letras, Notas, Punteos, Tablaturas y Acordes de Guitarra (Tabs & Chords)

  • Letra y Acordes
    ------
    G F
    
    Estrofa:
    --------
    G
    Una llamada perdida, un mensaje recibido
    F                         G
    Un e-mail en la pantalla, algo así eres tú.
    
    Estribilho:
    -----------
    A               C     G
    Pero no me importa, no entro a valorar tu capacidad
    A               C     D
    Porque yo te quiero por tu personalidad.
    
    Cambio:
    --------
    G            F            C
    
  • Tablatura
    e|-----3-3-3-3-3-3-3-3----- |-----------------------------------------
    B|---------------------3v-- |-----------------------------------------
    G|------------------------- |----------5-4v----------5-4v------------
    D|------------------------- |-----5-5--------5--5-5------------------- X2
    A|------------------------- |-----------------------------------------
    E|------------------------- |-----------------------------------------
    
    e|--------------------------------------------------------------------
    B|--------------------------------------------------------------------
    G|-------5-4-5-4-5-7---5-4-5-4-5-7------5-4---------------------------
    D|---5---------------5--------------5-5-----5-5v----------------------
    A|--------------------------------------------------------------------
    E|--------------------------------------------------------------------
    
      Estrofa 1:
         G
        Una llamada perdida, un mensaje recibido
    
         F                              G
        Un e-mail en la pantalla, algo así eres tú.
    
  • +
    ¡Colabora con nosotros!
    Envíanos tu versión de esta canción

Letra de Eres Tú
Estrofa:
Una llamada perdida, un mensaje recibido
Un e-mail en la pantalla, algo así eres tú.
Estribilho:
Pero no me importa, no entro a valorar tu capacidad
Porque yo te quiero por tu personalidad.
Cambio:
Aunque es evidente que te falta algún hervor,
por un cromosoma no va a haber aquí un follón
Cambio2:
El público que decide, el tontolaba que aplaude
lo que no quiero ser nunca, algo así eres tú.
Letra:
Una llamada perdida, un mensaje recibido
Un e-mail en la pantalla, algo así eres tú.
Un esclavo voluntario de las modas más idiotas.
Como un mando a distancia, algo así eres tú.
Un imbecil al volante de un cerebro tuneao,
todo carrocería, algo así eres tú.
Una persona distinta como todas las demás,
el héroe de un videojuego, algo así eres tú.
Pero no me importa, no entro a valorar tu capacidad
Porque yo te quiero por tu personalidad.
Aunque es evidente que te falta algún hervor,
por un cromosoma no va a haber aquí un follón
El público que decide, el tontolaba que aplaude
lo que no quiero ser nunca, algo así eres tú.

Videos de Eres Tú
[ver más videos]

[ver todas las canciones]


© LaCuerda.net · Aviso Legal · Privacidad