Acordes de Guitarra » G »Garras de amor » Loco de amor (Tab)

Loco de amor
Garras de amor

  • Letra y Acordes
    F - Dm - Gm - C
    =1=
                F                          Dm
    Aunque te olvides de este amor y de lo qué pasó,
                  Gm                    C
    de nuestra historia de amor y de tanta pasión,
             F                      Dm
    yo nunca te olvidaré porque siempre te amé
             Gm                     C
    y lo que aprendí de ti lo conservé dentro de mí...
         Gm       Dm            Gm        C
    y te quiero decir... que no puedo sin ti...
    
    =CORO=
                F                      Dm
    Y que estoy loco de amor, loco por vos,
        Gm                 C
    te quiero, mi niña te quiero...
                F                      Dm
    Y que estoy loco de amor, loco por vos,
    
  • Tablatura
       *=======  G A R R A S  D E  A M O R  =======*
       *==============(Tono Original)==============*
       *==== (Transcripción: Rodrigo González) ====*
       *===========================================*
    
    =INTRO= (Parte 1)
         FA        REm        LA#         DO
    E-----5---5------------------------------------
    B--6-8-8-6---6-6-5-5-6-----3-----3----3-5------
    G-----------------------3-5-5-3-5-5-3----5-----
    D----------------------------------------------
    A----------------------------------------------
    E----------------------------------------------
    
           FA                 REm
    E---13-15-17-15-13-17--13-13-12-12-13--
    B--------------------------------------
    G--------------------------------------
    D--------------------------------------
    A--------------------------------------
    
  • Tablatura
         E                      C#m
     e|-------4--------4----|------------|
     b|-5--7-----7--5-----7-|-5--4--4--5-|
     g|---------------------|------------|
     d|---------------------|------------|
     a|---------------------|------------|
     E|---------------------|------------|
    
         F#m                         B
     e|------------------------|------------|
     b|-------4--------4-------|-------4----|
     g|-4--6-----6--4-----6--4-|-6--6-----4-|
     d|------------------------|------------|
     a|------------------------|------------|
     E|------------------------|------------|
    
    
       Guitarra
    
         E                                 C#m
    
  • +
    ¡Colabora con nosotros!
    Envíanos tu versión de esta canción

Letra de Loco de amor
=1=
Aunque te olvides de este amor y de lo qué pasó,
de nuestra historia de amor y de tanta pasión,
yo nunca te olvidaré porque siempre te amé
y lo que aprendí de ti lo conservé dentro de mí...
y te quiero decir... que no puedo sin ti...
Y que estoy loco de amor, loco por vos,
te quiero, mi niña te quiero...
Y que estoy loco de amor, loco por vos,
te quiero, mi niña te quiero...
=2=
Aunque te olvides de este amor y de tanta pasión,
de nuestra historia de amor y de lo que pasó,
yo nunca te olvidaré porque siempre te amé
y lo que aprendí de ti lo conservé dentro de mí...
y te quiero decir... que no puedo sin ti...
Loco de amor.
# = acorde sostenido
m = acorde menor
(EJEMPLO: G#m = Sol sostenido menor)
'Hola, soy Rodrigo, El Último Romántico, espero que esta balada
les guste mucho,pues va dedicada con todo mi corazón para
mi polola Andrea. Un saludo y un abrazo fuertes a mis amigos:
Marco, Aarón, JoC, Simón, Laura, Claudia, a mis ex compañeros:
Lord Caoz, Kurochan, Chik Denisse, Pame, Roberto, al Maluto,
al grupo Sweet Revenge y a su vocal-bajista mi primo Jonathan...
cualquier duda sobre la transcripción o preguntas
relacionadas envíamelas a: rodrymicky@hotmail.com'
¡que viva el amor, la ternura y el romanticismo!
'Que el Señor te tenga consigo en la gloria hermanita mía'
'Que el Señor los Bendiga'
Febrero 11, 2005 ... El Último Romántico
=======www.aplicale.tk=======
_______________________________________________



© LaCuerda.net · aviso legal · privacidad · contacto