Acordes de Guitarra » G »Los Gardelitos » Monoblock (Tab)
  • Letra y Acordes
    Intro: Dm, Am, Bb, F, C.
    
    Dm                  Am  Bb                   F  C
       He venido del campo, a trabajar en la ciudad
    Dm                      Am  Bb                   F  C
       Ya me olvidado del tren, que una vez me trajo aca
    Dm                         Am  Bb                   F  C
       En mi pueblo no pasaba nada, y un dia me las tome
    Dm                      Am  Bb                   F  C
       Mientras mi madre decia: 'No dejes de pensar en mi'
    Dm                     Am  Bb                   F  C
       Entre tantos edificios, solo hallaras la soledad
    Dm                         Am  Bb                   F  C
       Fui postergando mis sueños, y mis ganas de regresar
    Dm                       Am  Bb                   F  C
       Ahora tengo otros amigos, otras cosas porque luchar
    Dm                         Am  Bb                   F  C
       Solo a mi madre le escribo, es lo unico que tengo aca.
    
    C, D (En quintas, cada vez más rápido)
    
  • Tablatura
         F            Dm             Am         Bb          F
    e|-1-3-3/5-|-1-1-----1p3-1-|-------------|-1---|-1-1--------1---|
    B|-1-1-----|-3---3---------|-1-3-3/5-3-1-|---3-|-1---1--------1-|
    G|-2-2-----|-2-----2-------|-------------|-----|-2-----2--------|
    D|---------|---------------|-------------|-----|-3-------2-3----|
    A|---------|---------------|-------------|-----|-3--------------|
    E|---------|---------------|-------------|-----|-1--------------|
    
    Dm
    He venido del campo
    Am
    A trabajar en la cuidad
    Bb
    Ya me he oladidado del tren
    F
    Que una vez me trajo aca
    
    En mi pueblo no pasaba nada
    Y un dia me las tome
    Mientras mi madre decia
    
  • Tablatura
         F            Dm             Am         Bb            F
    e|-1-3-3/5-5-|-1-1-----1p3-1-|-0-------------|-1-1----|-1-1--------1---|--|
    B|-1-1-------|-3---3---------|-1-1-3-3/5-3-1-|-3--3---|-1---1--------1-|--|
    G|-2-2-------|-2-----2-------|-2-------------|-3----3-|-2---------2----|x2|
    D|-----------|---------------|-2-------------|-3------|-3-------3------|--|
    A|-----------|---------------|---------------|-1------|-3-----3--------|--|
    E|-----------|---------------|---------------|--------|-1--------------|--|
    
    La guitarra eléctrica sigue haciendo este punteo mientras la acústica
    hace esto:
    
    Dm              Am
      He venido del campo,
    Bb              F
      A trabajar en la ciudad
    Dm                      Am
      Ya me he olvidado del tren
    Bb               F
      Que una vez me trajo aca
    
    
  • +
    ¡Colabora con nosotros!
    Envíanos tu versión de esta canción

Letra de Monoblock
He venido del campo, a trabajar en la ciudad
Ya me olvidado del tren, que una vez me trajo aca
En mi pueblo no pasaba nada, y un dia me las tome
Mientras mi madre decia: 'No dejes de pensar en mi'
Entre tantos edificios, solo hallaras la soledad
Fui postergando mis sueños, y mis ganas de regresar
Ahora tengo otros amigos, otras cosas porque luchar
C, D (En quintas, cada vez más rápido)
Tantas personas que viven aqui
Porque no estan unidas para vivir
Si todas las mentes dicen que no
No vale la pena seguir por seguir
Los jovenes tiene un poco de amor
Perdamos el miedo al Rock´n roll
No dejes que el miedo destruya este amor
No dejes que nada destruya este amor
No dejes que el gobierno destruya tu amor
No dejes que la region destruya tu amor
No dejes que la escuela destruya tu amor
No dejes que las leyes destruyan tu amor
No dejes que la soledad destruya tu amor
No dejes que la miseria destruya tu amor
No dejes, que nada destruya tu amor
no, no, no, no... que nada destruya tu amor.
De nuevo.
Aclaración: en la primera parte, el C es
solamente un pasaje para volver a Dm.
Bueno loko espero q disfruten este tema
q esta muy bueno, aguante los gardeles.
(juancho)/
Para chechu la gardelita



© LaCuerda.net · aviso legal · privacidad · contacto