Acordes de Guitarra » F »Los Fundamentalistas del Aire Acondicionado » Porco Rex (Tab)

Porco Rex
Los Fundamentalistas del Aire Acondicionado

Letras, Acordes y Tabs para Guitarra, Bajo y Ukulele

  •      Ab                  Eb
    E |------------------|----------------------|
    B |-7~-6-7-6---------|----8---9---8---9---8-|
    G |----------8-6-8~--|--8---8---8---8---8---| x2
    D |------------------|----------------------|
    A |------------------|----------------------|
    E |------------------|----------------------|
    
         C
    E |-------------------------------------------------|
    B |--------------------------------11/13-13--11-13~-|
    G |-5~--5-7-9-10--9-7-5-3-5--3-5--------------------|
    D |-------------------------------------------------|
    A |-------------------------------------------------|
    E |-------------------------------------------------|
    
    
    
    Ab
    Por esta vez Porco Rex
    
  • +
    ¡Colabora con nosotros!
    Envíanos tu versión de esta canción

Letra de Porco Rex
Por esta vez Porco Rex
se va a dejar llevar por su alma
Impresionante... se ve
como el fantasma feo de un bagre.
De carnada lo vamos a usar!
Un precio muy alto pagó
(quiso resucitar a un muerto)
En lo profundo, aceptó,
las aguas ya no están serenas.
Hola! Escuchen! Hay alguien allí?
"Perdonen mi ocurrencia
son mis modales así...
Ya casi nunca atiendo
(disfruto mi enfermedad)
En manos de pavotes
todo el sueño quedó
Disfrutá de los placeres
que te quedan sin dañar...
Dale! Dale! Dale!
Por esta vez Porco Rex
se va a dejar llevar por su alma
Pregunta por el menú
y va a cagar en las estrellas!
Crema y nata le van a quitar!
Y sigue...
Fin.




[Porco Rex chords][Porco Rex cifra]
© LaCuerda.net · aviso legal · privacidad · es · en · pt · contacto
DINAMICO