Acordes de Guitarra » F »La Fuga » Sola (Tab)

Sola
La Fuga

Letras, Acordes y Tabs para Guitarra, Bajo y Ukulele

  • E5: 779977
    Intro:
    C#5 B5 A5
    C#5 B5 A5
    C#5 B5 A5 F#5 A5
    
    C#5            B5     A5
    Fría, como un hielo entre las manos,
    C#5      B5    A5    C#5      B5    A5
    pasas delante de mi casa sin dedicar ni una mirada
    F#5                  A5
    a las paredes que esconden tus recuerdos.
    
    C#5            B5     A5
    Recuerdos que alg√ļn d√≠a,
    C#5      B5    A5
    quizá en la lejanía,
    C#5      B5    A5
    den de beber a tu alma
    F#5                  A5
    
  • | pegar con la pua las cuerdas para abajo y para arriba
    > estirar la cuerda hasta hacer sonar dos notas mas arriba
    * pal mute
    dejo estos apuntes puesto que soy bastante novato
     y no se como se llama cada cosa.
    !Si alguien se anima a decirmelo¬°
    
                    intro
    e|-------|--------------------------------------|
    B|-------|--------------------------------------|
    G|-------|-6-6---4-4-4-2------------------------|
    D|-------|-6-6---4-4-4-2-( X 3 )-4-4-4-4-4-4-7--|
    A|-----2-|-4-4---2-2-2-0---------4-4-4-4-4-4-7--|
    E|-2-4---|-----------------------2-2-2-2-2-2-5--|
                                     * * * * * *
                    riff 1
    e|-------------------------------------------|
    B|-------------------------------------------|
    G|-6-6-6-6-6-6-4--2--------------------------|
    D|-6-6-6-6-6-6-4--2-( X 3 )---4-4-4-4-4-4-7--|
    A|-4-4-4-4-4-4-2--0-----------4-4-4-4-4-4-7--|
    E|----------------------------2-2-2-2-2-2-5--|
       * * * * * *                * * * * * *
                    riff 2
    e|------------
  • e|-----------------------------------------------------
    B|-----------------------------------------------------
    G|-----------------------------------------------------
    D|-----------2-----------------------2---4s6-4-2---2-2-
    A|-----2-4p0--4-4s7-4-2---4-4-2--4p0---4---------4-----
    E|-2-4------------------4-------4----------------------
    
    e --------------------------------------------- |
    B --------------------------------------------- |
    G --------------------------------------------- |Intro:ritmica
    D --------2-----------------------4-4-4-4-4-4-4 |C#5 B5 A5
    A 4-2-4p0---4-4s7-4-2---4-4-2-----4-4-4-4-4-4-4 |C#5 B5 A5
    E --------------------4-------4---2-2-2-2-2-2-2 |C#5 B5 A5 F#5
                                      * * * * * * *
    C#5            B5     A5
    Fría, como un hielo entre las manos,
    C#5      B5    A5    C#5      B5    A5
    pasas delante de mi casa sin dedicar ni una mirada
    F#5                  A5
    a las paredes que esconden tus recuerdos.
    
  • +
    ¬°Colabora con nosotros!
    Envíanos tu versión de esta canción

Letra de Sola
Fría, como un hielo entre las manos,
pasas delante de mi casa sin dedicar ni una mirada
a las paredes que esconden tus recuerdos.
Recuerdos que alg√ļn d√≠a,
quizá en la lejanía,
den de beber a tu alma
sedienta de tantas alegrías.
Por eso dime, dime dónde duermes,
dime quién vigila tus noches oscuras
que t√ļ sola llenas de fantas√≠a.
Sola, caminas por la vida
fumándote los días,
bailando a la luna pa' que yo muera de envidia.
Me vendes tu sonrisa,
te busco en todas las miradas
que apuntan al cielo al caer la madrugada.
Ya no es tan f√°cil colgarme de tus sue√Īos,
borrar todas las nubes que apagan tus días,
pintar en tu cielo un sol por las ma√Īanas..
Sola, caminas por la vida
fumándote los días,
bailando a la luna pa' que yo muera de envidia.
Me vendes tu sonrisa,
te busco en todas las miradas
que apuntan al cielo al caer la madrugada.
Caminas por la vida
fumándote los días,
bailando a la luna pa' que yo muera de envidia.
Sola...
Sola...
Sola...
Sola...
Saludos desde Venezuela, viva La Fuga.
alejandro.toba@gmail.com




[Sola chords][Sola cifra]
© LaCuerda.net · aviso legal · privacidad · es · en · pt · contacto