Acordes de Guitarra » F »La Fuga » Buscando en la basura (Tab)

Buscando en la basura
La Fuga

Letras, Acordes y Tabs para Guitarra, Bajo y Ukulele

  • RE                               LA
    Triste, como un perro en la autopista
                          SIm
    como una tortuga con prisa
                          FA#m
    como una monja en un burdel
    RE                         LA
    Sólo, como cuando tu te fuiste
                        SIm
    como cuando no te rozan
                     FA#m   SOL
    unos labios de mujer...
    
                       LA
    Hoy me he vuelto a ver.....
    
    RE                                LA
    Absurdo, como el domingo por la tarde
                          SIm
    como las balas por el aire
    
  • RE, RE, SIm, LA x2
    
    ---------2--0---------|-2--5-2----3-2-0--5-3-2--3-2-0------------
    --3---3--------3-2-3--|--------------------------------3-2-0-----
    2---2-----------------|--------------------------------------4-2-
    ----------------------|------------------------------------------
    ----------------------|------------------------------------------
    ----------------------|------------------------------------------
    
    RE                               LA
    Triste, como un perro en la autopista
                          SIm
    como una tortuga con prisa
                          FA#m
    como una monja en un burdel
    RE                         LA
    Sólo, como cuando tu te fuiste
                        SIm
    como cuando no te rozan
                     FA#m   SOL
    
  • Este el solo de guitarra, de la versión acustica de esta canción,
    que aparece en "Nubes y claros".Lo saco una amiga mia
    
    
    ------------------0-2-3-2-0------0--------0-2-3-2-0---------------
    ----3-2-3-----3--------------3----------3-------------3-3---2h3-2-
    ------------------------------------------------------------------
    ------------------------------------------------------------------
    ------------------------------------------------------------------
    ------------------------------------------------------------------
    
    
    
    
    
    ------------------0-2-3-2-0------0---------5s7-5--3-2-0-2---------
    ----3-2-3-----3--------------3------------------------------------
    ------------------------------------------------------------------
    ------------------------------------------------------------------
    ------------------------------------------------------------------
    ------------------------------------------------------------------
    
    
    
    
    
    
    -5s7-5-----12-10-9----10-9-10-9-10-9-10-9--12-10-12-10-12-10-
  • e|--------------------------------| (x2)
    B|--------------------------------|
    G|---7-7-7---7-7-7---4-4-4--------|
    D|---7-7-7---7-7-7---4-4-4--7-7-7-|
    A|---5-5-5---5-5-5---2-2-2--7-7-7-|
    E|--------------------------5-5-5-|
    
    
    Guitarra 2 (entra al finalizar la primera repetición del guitarra 1)
    e|-----------------------------------------------
    B|-----------------------------------------------
    G|---------9-11-9-----------------11-14-11~------
    D|--7-9-12---------12-9-12~----------------------
    A|-----------------------------------------------
    E|-----------------------------------------------
    
    -------------------------------------------|
    -------------------------------------------|
    --12-11-9---14-12-11---9-11-9--------------|
    ------------------------------12-9-7-9-12~-|
    
  • (Intro x2)
    
    G: ----------------------------------------------------------------|
    D: ----------------------------------------------------------------|
    A: ---5-5-5-5-5-5----5-5-5-5-5-5-----------------------------------|
    E: ---------------------------------7-7-7-7-7-7-----5-5-5-5-5-5----|
    
    
         _________________________________
    
    
    G: ----------------------------|
    D: ----------------------------|
    A: ---5------------------------| (se toca en el verso a la misma
    E: -------5----7----2----------|  vez que la guitarra hace el acorde)
    
    
         _________________________________
    
    (en lo de "hoy me he vuelto a ver")
    
    G: ---------------------------------------|
    D: ---------------------------------------|
    A: ---------------------------------------|
    E: ----3-3-3-3-3-3-3-3-3-3-3-3-3-3-3-3----|
    
    G: -------------------------------------|
    D: -------------------------------------|
    A: -------------------------------------|
    E: ----5-5-5-5-5-5-5-5-5-5-5-5-5-5-5-5--|
    
         _________________________________
    
    (el
  • +
    ¡Colabora con nosotros!
    Envíanos tu versión de esta canción

Letra de Buscando en la basura
Triste, como un perro en la autopista
como una tortuga con prisa
como una monja en un burdel
Sólo, como cuando tu te fuiste
como cuando no te rozan
unos labios de mujer...
Hoy me he vuelto a ver.....
Absurdo, como el domingo por la tarde
como las balas por el aire
como el puto despertador
Inútil, como los besos que no diste
como un cuerpo que se viste
cuando me desnudo yo
Y ahora que..
voy mas solo que la luna
nagociando gasolina
para este amanecer
Ya ves..
voy buscando en la basura
unos labios que me digan
esta noche quedate
Como un borracho en el desierto
como una princesa en el metro....
como un reo sin voz
como una navidad sin techo
como un delfín en el mar muerto
como la lágrima que moja tu colchón
Vacío, como el corazón del rico
como el bolsillo del mendigo
como los besos de alquiler
Confuso, como una noche sin abrigo
como las frases que
ya no te escribo pa' que vuelvas otra vez
Estribillo (X2)
Y ahora que, voy mas solo que la luna
negociando gasolina, para este amanecer
Ya ves, voy buscando en la basura
unos labios que me digan, esta noche quedate.




[Buscando en la basura chords][Buscando en la basura cifra]
© LaCuerda.net · aviso legal · privacidad · es · en · pt · contacto
DINAMICO