Acordes de Guitarra » F »La Fuga » No sólo respirar (Tab)

No sólo respirar
La Fuga

Letras, Acordes y Tabs para Guitarra, Bajo y Ukulele

  • SOL LA SIm
    No tiraré de reproches
    SOL LA SIm
    Me basta con un adios
    LA SOL
    Se me atragantan tus noches
    LA RE
    Tus dias aún peor
    
    SOL LA SIm
    Quien es Caín quien es Abel
    SOL LA SIm
    Quien ha jodido este abril
    LA SOL
    En tus ojos mil tormentas
    LA RE
    Los mios no quieren abrir
    
    
    ESTRIBILLO
    
  •   SIm*               SOL*                  LA*
    ---------         -----------          -----------
    ---------         -----------          -----------
    -----4---         -----4-----          ----4------
    ---4---4-         ---4---4---          --4---4----
    -2-------         -----------          -0---------
    ---------         -3---------          -----------
    
    
    Intro:  SIm* SIm* SOL* LA* (x2)
    
    
    
    SIm*       SOL*      SIm*    SIm*
        No tiraré de reproches
    SOL*     LA*     SIm*   SIm*
    Me basta con un adiós
    
    --------------------------------------------------------------
    --------------------------------------------------------------
    
  • G --4----4----4----4--
    D -4-4--4-4--4-4--4-4-  x2
    A 2----0----2----2----
    
    la segunda vez q se repite lo de arriba
    la otra guitar ace esto:
    
    G -s7----------6b7b6--4-
     y empieza la lewtra
    
    G --4----4----4----4--
    D -4-4--4-4--4-4--4-4-
    A 2----0----2----2----
    no tirare de reprroxes
    
    G --4----4----4----4--
    D -4-4--4-4--4-4--4-4-
    A 2----0----2----2----
    me basta con un adios
    
    
  • +
    ¡Colabora con nosotros!
    Envíanos tu versión de esta canción

Letra de No sólo respirar
No tiraré de reproches
Me basta con un adios
Se me atragantan tus noches
Tus dias aún peor
Quien es Caín quien es Abel
Quien ha jodido este abril
En tus ojos mil tormentas
Los mios no quieren abrir
ESTRIBILLO
Ya ves, cojo mi mala cara y me voy de aquí
No sé las veces que me reinventé
Dormir, se antoja muy dificil si es sin ti
No solo respirar es vivir
Vete apurando el mal trago
La espesa conversación
Ya esta todo gritado
Mejor pa'l corazón
Y que lo cure los años
Que lo alivie otros labios
Será mejor partir
Que desangrarnos.
ESTRIBILLO
Ya ves, cojo mi mala cara y me voy de aquí
No sé las veces que me reinventé
Dormir, se antoja muy dificil si es sin ti
No solo respirar es vivir
Ye he vuelto a ser el idiota
Que llama de madrugada
Para colgar sin decir nada
A esas horas no hay palabras
Y te maldigo en mis canciones
Porque no me atrevo a la cara
Y voy barriendo los rincones
De mi alma.




[No sólo respirar chords][No sólo respirar cifra]
© LaCuerda.net · aviso legal · privacidad · es · en · pt · contacto
DINAMICO