Tablatura para Bajo de Fito & Fitipaldis: El Funeral
Conexión · Inscripción
Letras y Acordes
Pantalla Completa
Imprimir
Versión Texto
Añadir Favorito
Otras Versiones

Mostrar Diagramas
Desfile Automático
Formato del Texto


El Funeral(BAJ)

Fito & Fitipaldis

calidad:
f_fi0521
AUTOR: Fito
ALBUM: A Puerta Cerrada (1998)
Enviado por Rubén
Esta cancion no lleva bajo eléctrico como tal si no que el bajo
lo va haciendo un trombón pero se puede simular así:

Esto con el punteo y la letra: Hoy es un día que jamás...

G---------------------------------------
D---------------------------------------
A--------------------7-8-7--------------
E--5--0--5--0-5-4--0-------10-8-7-------

La gente se arrodilla y mira:

G---------------------------------------
D---------------------------------------
A---------------2-----7-8-7-------------
E--5--0--5--0-5---4-0------10-8-7-------

Yo no quiero que me traigan ramos...

G--------------------------------------
D--------------------------------------
A--2--2--2-3-------3-------------------
E---2--2----3--2-3---------------------

Lo que quiero es que no me coman los gusanos...

G--------------------------------------------------
D---------------------------------------------3s10-
A--2--2--2-3-------3---2---2---2-3---------------------
E---2--2----3--0-3-------2---2-----------------------

Y a partir de aquí se repite todo el rato solo al final se acelera
Un poco. Un saludo.

By Mith.
Este fichero es trabajo propio de su transcriptor y representa su interpretación personal de la canción. El material contenido en esta página es
para exclusivo uso privado, por lo que se prohibe su reproducción o retransmisión, así como su uso para fines comerciales.
© LaCuerda.net · Aviso Legal · Privacidad