Tablatura para Guitarra de Fernando Delgadillo: Hoy en tu cumpleaños
Conexión · Inscripción
Letras y Acordes
Pantalla Completa
Imprimir
Versión Texto
Añadir Favorito
Otras Versiones

Mostrar Diagramas
Desfile Automático
Manipular Acordes
Formato del Texto


Hoy en tu cumpleaños(TAB)

Fernando Delgadillo

calidad:
fern0414
AUTOR: FERNANDO DELGADILLO
ALBUM: desconocido
Enviado por Alonso
Esta la dedico enteramente a CVZ que una ves mas,
me inspiro en el camino


hoy en tu cumpleaños

e|-------0-------------3-----3-------3--------
B|-----3----3----2-------2-------1------1-----
G|-0h1---------1---2-------2-------2--------0-
D|------0----0-------0---------0----------0---
A|-2-------2-----0----------------------------
E|------------------------------------2-------



---------------------------0-----------3-----2-|
--0h1h0h---------------3-------3---2-----2-----|
---------2h0-------1-----------------------2---|
-------------2h0-----2-------2-------0---------|
-------------------------2-------0-------------|
3----------------0-----------------------------|



e|-------3---------------3-------1-----------0--
B|---1-------1---------------------------0------
G|-----2---------0---0-------0-------0----------
D|-0-----------0-------0-------0-------0-------0
A|----------------------------------------------
E|---------2-------3-------3-------3-------3----


-----3-----3-----------3--------------------------|
-0-----0-----------0-------0-------0-------0------|
---3-----3-----3-----3---3-----3-------3----------|
-----0-----------0---------------0-------0--------|
---3-------------------------3--------------------|
-------------3-----------------------2------------|

e|--------------------------------------------------
B|-------0h1---1---0-0---1---3--------------5-------
G|---0-------0---0-----0---0---0--------3-------2---
D|-----0-------2---0-----2---3------------5-------4-
A|------------------------------------3-------2-----
E|-3-----------------3------------------------------

--------------------------3------------------|
3------2-------3------1-------1-----0h1h0----|
---0-------0------2--------------0-------2-0-|
-----2-------0------0-------0------0------0--|
--0------------------------------------------|
---------3------2-------2------3-------------|

                     hoy en tu...

e|-----------0-----------3-----3-------3----------
B|-------3-------3-2-------2-------1-----------1--
G|---1---------------2-------2-------2-----0------
D|-----2-------2-------0---------0-----------0----
A|---------2-------0------------------------------
E|-0-------------------------------------2-------3


-----1-------0-----------3---------------0-----|
---------------1---3h5-----5---------0h2---2---|
-0-------0-------0-----3-----3---2-----------2-|
---0-------0-----------------------2-----------|
---------------3---3-----------0---------------|
-------3---------------------------------------|


e|-------3-----3-------3--------------------------
B|-2-------2-------1-----------1---0h1h0----------
G|---2-------2-------2-----0-------------2h0------
D|-----0---------0-----------0---------------2h0--
A|-0----------------------------------------------
E|-----------------------2-------3---------------0


---------0-----------3-----3-------3-----------|
-----3-------3-2-------2-------1-----------1---|
-1---------------2-------2-------2-----0-------|
---2-------2-------0---------0-----------0-----|
-------2-------0-------------------------------|
-------------------------------------2-------3-|

e|-----------------------------0-----------3-----3
B|1h3-1-0------------------3-------3-2-------2----
G|--------2-0-2--------1---------------2-------2--
D|2h4-2-0----------------2-------2-------0--------
A|---------------------------2-------0------------
E|-------------3-2-1-0----------------------------

-------3----------------------------------2----|
---2------------------3-------3-------4-------4|
-----2--------0---0-------0-------2------------|
--------------------2-------0-------4-------4--|
--------0h1h2---3---------------2-------2------|
-3----------------------3----------------------|


                un trozo..
e|-----------------------3---------------1-------
B|-------2-------2---1-----------1---------------
G|---0-------0---------2-----0-------0-------0---
D|-----2-------2---0-----------0-------0-------0-
A|-0-------4-------------------------------------
E|-------------------------2-------3-------3-----

0-------3---------------------------------------|
--1---5---5---0h1h0-----------------------------|
----0-------3-------2h0-------------------------|
------------------------3h2-0-------------------|
--3---3-----------------------------------------|
------------------------------------------------|

e|------------------------------------------------
B|-0---1---3---------5-------3-------2-------3----
G|---0---0---0---3-------2-------0-------0-------0
D|-----2---3-------5-------4-------2-------0------
A|-------------3-------2-------0------------------
E|-3-----------------------------------3-------2--

------3---------------------------------0------|
---1------1-------0h1h0-------------3-------3--|
--------------0---------2---0---1--------------|
-0------0-------0---------0-------2-------2----|
-----0--------------------------------2--------|
------------3-----------------0----------------|

   150..

e|-------3-----3-------3---------------3-------1-
B|-2-------2-------1-----------1-----------------
G|---2-------2-------2-----0-------0-------0-----
D|-----0---------0-----------0-------0-------0---
A|-0---------------------------------------------
E|-----------------------2-------3-------3-------


-----------------------------------------------2|
----0---1---3---------5-------3-------2----1----|
--0---0---0---0---3-------2-------0----------2--|
----0---2---3-------5-------4-------2----0------|
----------------3-------2-------0---------------|
3-----------------------------------------------|


e|-------------------------3-----3-------3---------
B|-------0h1h0-------2-------2-------1-----------1-
G|---0---------2---0---2-------2-------2-----0-----
D|-----0---------0-------0---------0-----------0---
A|-------------------0-----------------------------
E|-3---------------------------------------2-------

----------------------------------------------|
-------0h1---1---0----------------------------|
---0-------0---0---0--------------------------|
-----0-------2---0-----0---0---0--------------|
---------------------4---5---6----------------|
-3--------------------------------------------|




aqui este es el solo de la version de estudio

e|----------------------5-3-3-------5-3---------3-1-
B|--------------------------------------------------
G|-p5-5-7-5-7-5-4-2-4-4-------4-3-3-----4-3-3-3-----
D|--------------------------------------------------
A|--------------------------------------------------
E|--------------------------------------------------


-----------------------------5-----1-5-3-1--|
---------------------------6-----1---5-3-1--|
2-3-4-p5-5-7-5-7-5-4-2-4-5-----2------------|
--------------------------------------------|
--------------------------------------------|
--------------------------------------------|

e|---------------------------10--------------1-------1-----------------1
B|-------8-10-8-10-8-8-10h12----12-10----------1---1-------------------1
G|-7-9-7------------------------------p12-10-----2-----2-----------0-2-2
D|-------------------------------------------------------3-0h2h3h4------
A|----------------------------------------------------------------------
E|----------------------------------------------------------------------

y aqui la guitarra principal


e|---------------------------5-----------5-------------------3--------
B|-------7---------------8-------8-----------7-----------6-------6----
G|---7-------7---7---5---------------5-----------5---3----------------
D|-----6-------6-------7-------7-------7-------7-------5-------5------
A|-7---------------5---------------5---------------3------------------
E|---------7---------------5---------------5---------------3----------

e|-------3-------3-------3-------3-------3-------3--------------------
B|---1-------1-------1-------1-------1-------1-----------0h1---1---0--
G|-----0-------0-------0-------0-------0-------2-----0-------0---0---0
D|-----------------------------------------0-----------0-------2---0--
A|-3-------3-------2-------2-------0----------------------------------
E|-------------------------------------------------3------------------

ya se repite el verso y solamente antes de lo ultimo hace este cambio
e|-------------------------------------------------------------------
B|-------------------------------------------------------------------
G|-------------------------------------------------------------------
D|-2h3h2h0---------0---0---0-----------------------------------------
A|---------2h0---4---5---6-------------------------------------------
E|-------------3-----------------------------------------------------

despues otra ves el acompañamiento y al final hace este otro cambio y
con eso termina

e|--------2-------0-------3-------3-------3-------3-------3-------
B|----3-------3-------3---------------------------------------1---
G|------0-------0-------0-----0-------0-------0-------0---------0-
D|-2----------------0-----------0-------0-------0-------0---------
A|----------3-----------------------------------------------3-----
E|--------------------------3-------2-------0-------0-------------


3-------3---------3-----0---------------------3---|
----1-----------1---3h5---5---1h0---------0h1-0---|
------0-------0-------------0-----2h0---0-----0---|
------------------------------------------0h2-0---|
--3-------0h2---------------------------------2---|
--------------------------------------3-------3---|
Este fichero es trabajo propio de su transcriptor y representa su interpretación personal de la canción. El material contenido en esta página es
para exclusivo uso privado, por lo que se prohibe su reproducción o retransmisión, así como su uso para fines comerciales.

© LaCuerda.net · Aviso Legal · Privacidad