Tablatura para Guitarra de Fernando Delgadillo: Hoy en tu cumpleaños
Conexión · Inscripción
Letras y Acordes
Pantalla Completa
Imprimir
Versión Texto
Añadir Favorito
Otras Versiones

Mostrar Diagramas
Desfile Automático
Manipular Acordes
Formato del Texto


Hoy en tu cumpleaños(TAB)

Fernando Delgadillo

calidad:
fern0413
AUTOR: FERNANDO DELGADILLO
ALBUM: desconocido
Enviado por Sergio
+--------------------------------------------------------------------------+
¦El autor de esta transcripción no se hace responsable por malos usos de   ¦  
¦este contenido                                                            ¦       
+--------------------------------------------------------------------------+
Es la versión original, la del concierto lleva capo en el segundo traste

^=hamer on (se toca una vez la cuerda, y solo se pisa la siguiente nota)

Introducción
TAB
1|-------0-----0-------3----3---3-----3-------------------------0------5--5-
2|---------3----3-----3-3----3---3-------0^1--0----0---0-------3------3-3---
3|--0^1-------0------2---2----2---2---------------2-----------0------0---0--
4|------------------0-------0------------0^2--0--------------0--------------
5|----------------------------------------------------0-------------4-------
6|------------------------------------3--------------------3----------------

1|------3--3--------3---1------0------0-----------------0------------------|
2|-----1-1---------0-0---0---0------0---0-----0-------0---0----0--0^1-0-0--|
3|----0---0-------0---0-----3-0----0-3-0-----0-0-0---0-3-0----0------2-----|
4|------------------------------------------0---0------------0----0^2------|
5|--3-----------------------------3-----------------3----------------------|
6|---------------3-------------------------3----------------3-----------3--|


****************************************************************************

C C/D Am Hoy en tu cumpleaños podría, no sé, conseguirte
D G Em A7 D media tonelada de flores siete miradas distintas
G C A/C# G E quinientos besos de sabores, un collar de perlas amarillas
A D7 G dos boletos para el cine un disco de los Rolling.
C C/D Am Un trozo de carbón que en menos de mil años
D G G7 C A/C# será un bello diamante, un diente de tiburón
D C D G una piedra lunar y hasta una foto de Marte recién tomada
C D G 20 poemas de amor y una canción desafinada.
C C/D Am D G Ciento cincuenta sueños dorados y un par de fantasías más terrenales
Em A7 D G mi bolsa de canicas, mi infancia y muchas felicidades.
C C/D Am D G Em Mis manos llenas de caricia envueltas para regalo
A7 D mi acta de nacimiento endosada a tu nombre
G y tiempo para pensarlo
C C/D Am Hoy en tu cumpleaños podría conseguir
D G Em todo lo que tengo y soy para ti y todo lo que venga
A7 C D G a cambio de que, no sé algo se nos ocurrirá. Acordes: C X32010 C/D X20010 Am X02210 D XX0232 Em 022000 A7 X02020 A/C# X43020 ***************************************************************************** Transcripción por: Sergio Mañón Torres (magnon@mailcity.com)
Este fichero es trabajo propio de su transcriptor y representa su interpretación personal de la canción. El material contenido en esta página es
para exclusivo uso privado, por lo que se prohibe su reproducción o retransmisión, así como su uso para fines comerciales.

© LaCuerda.net · Aviso Legal · Privacidad