Tablatura para Guitarra de Fernando Delgadillo: Eva en las frutas
Conexión · Inscripción
Letras y Acordes
Pantalla Completa
Imprimir
Versión Texto
Añadir Favorito
Otras Versiones

Mostrar Diagramas
Desfile Automático
Manipular Acordes
Formato del Texto


Eva en las frutas(TAB)

Fernando Delgadillo

calidad:
fern0811
AUTOR: Fernando delgadillo
ALBUM: Campo de sue~os
Enviado por Manuel
 esta rola es muy difícil asi que nada mas tengo el...

INTRO:

1|------------------------------------------------------0--0---3/5--5---6-7-9-10-7-6---5/3---5/7|
2|-----------------------------------0----------0---------0---3--------------------------------------|
3|---2h3p2h0----0---------0h2-------0h2-----2-------------------------------------------------|
4|---------------3----0h2h3------------------------------------------------------------------------|
5|-----------------------------------------------------------------------------------------------------|
6|-----------------------------------------------------------------------------------------------------|

1|--3p0h3---3—0---------------------------------|
2|-------------------3-------------------------------|
3|----------------------2p0--2p0---2/4------------|
4|------------------------------------------5p2h5--|
5|---------------------------------------------------|
6|---------------------------------------------------|


…………………….........espero que les sirva………………………
Este fichero es trabajo propio de su transcriptor y representa su interpretación personal de la canción. El material contenido en esta página es
para exclusivo uso privado, por lo que se prohibe su reproducción o retransmisión, así como su uso para fines comerciales.

© LaCuerda.net · Aviso Legal · Privacidad