Acordes de Guitarra » F »Falling Kids » Colgado de una nube (Tab)

Colgado de una nube
Falling Kids

Letras, Acordes y Tabs para Guitarra, Bajo y Ukulele

  • FALLING KIDS - COLGADO DE UNA NUBE
    
    
    
    Intro :
    
    --------------------------------------------------------------
    --------------------------------------------------------------
    ----------------------------------------------------6---------
    -------7--6--7--------7--6--4--------7--9--7--7-----------9--7
    -5--5-----------7--7-----------9--9--------------9-----9------
    --------------------------------------------------------------
    
    Estrofa :
    
    --------------------------------------------------------------
    --------------------------------------------------------------
    -------------------------------------------------------7------
    -------7--6--7--------7--6--7--------9--7--9--------------6--7
    -5--5-----------7--7-----------9--9--------------9--9---------
    --------------------------------------------------------------
    
    Andas todo el dia por ahí,
    no tienes edad para pensar vas
    siempre de juerga, nada de responsabilidad.
    
    Pre-Estribillo :
    
    --------------------------------------------------------------
  • Aquí os dejo el Tab "Oficial" de Colgado de una Nube.
    
    Espero que lo disfruteis!
    
    (x) mute
    / Slide up
     Slide down
    ~ Vibrato
    
    Intro:
    
    ------------------------------|------------------------------|
    ------------------------------|------------------------------|
    ------------------------------|------------------------------|
    ---------7-------6--------7~--|---------7-------6-------4~---|
    ---5--5-----(5)-----(5)-------|---7--7-----(5)-----(5)-------|
    ------------------------------|------------------------------|
    
    
    ------------------------------|------------------------------|
    ------------------------------|------------------------------|
    ---------7-------9-------7~---|---------11------9-------7~---|
    ---9--9-----(9)-----(9)-------|---9--9-----(9)-----(9)-------|
    ------------------------------|------------------------------|
    
    Estrofa:
    
    
    ------------------------------|------------------------------|
    ------------------------------|------------------------------|
    ------------------------------|--
  • +
    ¡Colabora con nosotros!
    Envíanos tu versión de esta canción



Video de Colgado de una nube
[]




[Colgado de una nube chords][Colgado de una nube cifra]
© LaCuerda.net · aviso legal · privacidad · es · en · pt · contacto