Tablatura para Bajo de los Fabulosos Cadillacs: Yo no me sentaría en tu mesa
Conexión · Inscripción
Letras y Acordes
Pantalla Completa
Imprimir
Versión Texto
Añadir Favorito
Otras Versiones

Mostrar Diagramas
Desfile Automático
Formato del Texto


Yo no me sentaría en tu mesa(BAJ)

los Fabulosos Cadillacs

calidad:
fabu0452
AUTOR: Fernandez Capello, Pardo, Sergio Rotman
ALBUM: Vasos Vacios (1993)
Enviado por Santiago
QUE VUELVAN  A JUNTARSE LOS MAESTROS DEL ROCK SKA LATINO!!
SON MEJORES JUNTOS QUE SEPARADOS!


-Oooooooohhhhh…
G|-------------------------------------------------------|
D|---------------------2-2-2-----------------------------|
A|-3-3-3-----3---0-0-0-----------------3------2-4---4--4-|
E|-------3-3---3-------------1-1-1-1-1---1--3-----3---3--|



-Por mas que quieras sacarnos de nuestro lugar…
G|-------------------------------------------------------|
D|-------------------------------------------------------|
A|-3-3-3-3--0-0-0-0--------------------------------------|
E|-------------------1-1-1-1--3-3-3-3--------------------|



-Oooooooohhhhh…
G|-------------------------------------------------------|
D|---------------------2-2-2-----------------------------|
A|-3-3-3-----3---0-0-0-----------------3------2-4---4--4-|
E|-------3-3---3-------------1-1-1-1-1---1--3-----3---3--|


-Y si después no crees lo que te estoy diciendo…
G|-------------------------------------------------------|
D|-------------------------------------------------------|
A|-3-3-3-3--0-0-0-0--------------------------------------|
E|-------------------1-1-1-1--3-3-3-3--------------------|



-Oooooooohhhhh…
G|-------------------------------------------------------|
D|---------------------2-2-2-----------------------------|
A|-3-3-3-----3---0-0-0-----------------3------2-4---4--4-|
E|-------3-3---3-------------1-1-1-1-1---1--3-----3---3--|

Y sigue así con los solos y el resto de la canción.
Este fichero es trabajo propio de su transcriptor y representa su interpretación personal de la canción. El material contenido en esta página es
para exclusivo uso privado, por lo que se prohibe su reproducción o retransmisión, así como su uso para fines comerciales.

© LaCuerda.net · Aviso Legal · Privacidad