Tablatura para Bajo de los Fabulosos Cadillacs: La luz del ritmo
Conexión · Inscripción
Letras y Acordes
Pantalla Completa
Imprimir
Versión Texto
Añadir Favorito
Otras Versiones

Mostrar Diagramas
Desfile Automático
Formato del Texto


La luz del ritmo(BAJ)

los Fabulosos Cadillacs

calidad:
fabu0712
AUTOR: los Fabulosos Cadillacs  corregir
ALBUM: desconocido
Enviado por Santiago
INTRO:
  G7
G|-------------------------------------|
D|--5-3--------------5-3---------------|
A|------5-4-3------------5-4-3---------|
E|------------6----------------6-------|

G|-----------------|
D|--5-3------------|
A|------5-4-3------|
E|------------6-3--|

   G7
G|-------------------------------------|
D|--5-3--------------5-3---------------|
A|------5-4-3------------5-4-3---------|
E|------------6----------------6-------|

G|-----------------|
D|--5-3------------|
A|------5-4-3---5--|
E|------------6----|

COROS:
   G   F         G F
G|-------------------------------------|
D|-------------------------------------|
A|-----5-4-5-4-5---5-4-5-4-5-----------|
E|-3-3-----------3---------------------|

ESTROFAS:
        G       F
G|-------------------------------------|
D|------3-------3----------------------|
A|----5---5---5---5--------------------|
E|--3-------3-------3------------------|
Este fichero es trabajo propio de su transcriptor y representa su interpretación personal de la canción. El material contenido en esta página es
para exclusivo uso privado, por lo que se prohibe su reproducción o retransmisión, así como su uso para fines comerciales.

© LaCuerda.net · Aviso Legal · Privacidad