Acordes de Guitarra » E »Estopa » Ya no me acuerdo (Tab)

Ya no me acuerdo
Estopa

  • Letra y Acordes
             LAm      REm
    Esta mañana...
                 SOL          LAm                REm
    Ya no me acordaba como tocaban tus dedos
                 SOL           DO
    esta guitarra que era para mi tu cuerpo.
    MI                        LAm
    ya no me acordaba lo que sentía
              REm           MI
    cuando acariciaba tu pelo
            LAm
    Ya no me acuerdoooo...
             REm       SOL         LAm
    Si tus ojos eran marrones o negros
               REm          SOL                  DO
    como la noche o como el día que dejamos de vernos
       MI                         LAm
    solo recuerdo que llovía y que quedamos,
           REm           MI
    en la parada del metro...
    
  • Letra y Acordes
             LAm      REm
    Esta mañana...
                              LAm                REm
    Ya no me acordaba como tocaban tus dedos
                          SOL                   DO
    esta guitarra que era para mi tu cuerpo.
    MI                        LAm
    ya no me acordaba lo que sentia
                REm           MI
    cuando acariciaba tu pelo
            LAm
    Ya no me acuerdoooo...
             REm                   LAm
    Si tus ojos eran marrones o negros
               REm          SOL                  DO
    como la noche o como el dia que dejamos de vernos
                                  LAm
    solo recuerdo que llovia y que quedamos,
           REm           MI
    en la parada del metro...
    
  • Tablatura
    -------------0---------------1--------------0------------------------0---------
    -------------1---------------3--------------1-------------------1--------------
    -------------2---------------2--------------2-----------------2---2----2---2---
    -------------2-----3---2-----0--------------2---------------2------------2---2-
    -------------0------------------------------0-------------0--------------------
    -------------0------------------------------0----------------------------------
    Esta mañana,                    ya no me acordaba cómo tocaban    tus    dedos
    
    
    ---------------------0---------------------------------------0-----------------
    -------------------3---3-------------1-------------------1---------------------
    -----------------2-------2---------0---0---------------2---2---2---2-----------
    3---2---0------------------------2-------2-----------2-----------2---2---------
    -------------------------------3-------------------0---------------------------
    -------------------------------------------------------------------------------
                     esa   guitarra   que   era        para   mí   tu   cuerpo...
    
    
    -------------------------0-------------------------------------0---------0-----
    ----------1----------------1-------------1-----------------1-------------------
    
  • +
    ¡Colabora con nosotros!
    Envíanos tu versión de esta canción

Letra de Ya no me acuerdo
Esta mañana...
Ya no me acordaba como tocaban tus dedos
esta guitarra que era para mi tu cuerpo.
ya no me acordaba lo que sentia
cuando acariciaba tu pelo
Ya no me acuerdoooo...
Si tus ojos eran marrones o negros
como la noche o como el dia que dejamos de vernos
en la parada del metro...
ESTRIBILLO
Pero haciendo un gran esfuerzo aun veo,
tu mirada en cada espejo
de cada ascensor,
donde cada noche me sube hasta el cielo
de moteles invernadero
donde se jura algo tan efimero.
Ya no me acuerdo...
ni de tu risa, ni de tu prisa por darme un beso
ni que boton de tu camisa desabrochaba primero
ni que dulce rumba me bailabas cuando,
querias robarme el sueño y dicen que el tiempo...
Y el olvido son como hermanos gemelos
que vas echando de mas lo que un dia echaste de menos
yo que culpa tengo,si ya no me acuerdoooo!!!
ESTRIBILLO
Pero haciendo un gran esfuerzo aun veo,
tu mirada en cada espejo
de cada ascensor,
donde cada noche me sube hasta el cielo
de moteles invernadero
donde se jura algo tan efimero y tan eterno
ya no me acuerdo ya no me acuero.



© LaCuerda.net · aviso legal · privacidad · contacto