Acordes de Guitarra » E »Enrique Iglesias » quiero ser tu héroe (Tab)

quiero ser tu héroe
Enrique Iglesias

Letras, Acordes y Tabs para Guitarra, Bajo y Ukulele

  • intro SOL MIm DO RE
    
    SOL
    Si una vez
              MIm
    Yo pudiera llegar
    DO
    A erizar
               RE
    De frió tu piel
    
    SOL
    A quemar
                  MIm
    Que se yo tu boca
    DO
    Y morirme
             RE
    Allí después
    
    
  •   G      |  3 3 0 0 2 3
      Em/9   |  3 3 0 2 2 0
      C9     |  3 3 0 2 3 0
      F#/d   |  3 3 2 0 0 0
    
    
    INTRO:
          G
    e-------3------------------------3----------
    B-----------3-----------------------3-------
    G---------------0----------------------0----
    D-------------------------------------------
    A-------------------------------------------
    E-----3------------------------3------------
    
           Em/9
    e--------3-----------------------3----------
    B-----------3-----------------------3-------
    G--------------0-----------------------0----
    D-------------------------------------------
    
  • +
    ¡Colabora con nosotros!
    Envíanos tu versión de esta canción

Letra de quiero ser tu héroe
Si una vez
Yo pudiera llegar
A erizar
De frió tu piel
A quemar
Que se yo tu boca
Y morirme
Allí después
Y si entonces
Y lloraras al verme sufrir
ahy sin dudar
Tu vida entera dar
Como yo la di por ti
Si pudiera ser tu héroe
Si pudiera ser tu Dios
Que salvarte a ti mil veces
Puede ser mi salvación
Si supieras la locura que tengo
Que me hiere y me mata por dentro
y que mas da, mira que al final
Lo que importa es que te quiero
Si pudiera ser tu héroe
Si pudiera ser tu Dios
Que salvarte a ti mil veces
Puede ser mi salvación
1ra guitarra
haaa, déjame tocarte
Quiero acariciarte
Una vez más
Mira que al final
Lo que importa es que te quiero
Si pudiera ser tu héroe
Si pudiera ser tu dios
Que salvarte a ti mil veces
Puede ser mi salvación
Quiero ser tu héroe
Si pudiera ser tu dios
Por que salvarte a ti mil veces
Puede ser mi salvación
Puede ser mi salvación
Quiero ser tu héroe
una versión mejorada con su tab del solo




[quiero ser tu héroe chords][quiero ser tu héroe cifra]
© LaCuerda.net · aviso legal · privacidad · es · en · pt · contacto
DINAMICO