Tablatura para Guitarra de Enrique Bunbury: Sólo si me perdonas
Conexión · Inscripción
Letras y Acordes
Pantalla Completa
Imprimir
Versión Texto
Añadir Favorito
Otras Versiones

Mostrar Diagramas
Desfile Automático
Manipular Acordes
Formato del Texto


Sólo si me perdonas(TAB)

Enrique Bunbury

calidad:
enri0253
AUTOR: Enrique Bunbury, Copi
ALBUM: Pequeño (1999)
Enviado por Jack
Afinación medio tono abajo (Eb Ab Db Gb Bb Eb)

   Intro: 3 veces
   00.11
Eb|--------------------11\9-------------------------------|
Bb|----12----12------12--------12----12----12p11----------|
Gb|----13----13----13----------13----13-------------------|
Db|-11----11----11----------11----11----11----------------|
Ab|-------------------------------------------------------|
Eb|-------------------------------------------------------|

Eb|--------------------11\9-------------------------------|
Bb|----12----12------12--------12----12---12-11-10--------|
Gb|----13----13----13----------13----13---13-12-11--------|
Db|-11----11----11----------11----11----------------------|
Ab|-------------------------------------------------------|
Eb|-------------------------------------------------------|

Una palabra más rotunda que otra no me atorga ni un gramo de verdad.

                                                     Fill 2
Seguro que solo quería demostrar esa inseguridad que me devora.

   00.46
Eb|--------------------11\9-------------------------------|
Bb|----12----12------12--------12----12----12p11----------|
Gb|----13----13----13----------13----13-------------------|
Db|-11----11----11----------11----11----11----------------|
Ab|-------------------------------------------------------|
Eb|-------------------------------------------------------|

Eb|--------------------11\9-------------------------------|
Bb|----12----12------12--------12----12---12-11-10--------|
Gb|----13----13----13----------13----13---13-12-11--------|
Db|-11----11----11----------11----11----------------------|
Ab|-------------------------------------------------------|
Eb|-------------------------------------------------------|

                                                  Fill 3
Aquí, ahora, de nuevo otra vez he vuelto a sobrepasar el límite que

                                     Fill 2
puede soportar y de esta no sale vivo.

   Coro: 01.08   Tocar Rhy. Fig. 1

Si me perdonas, si me das, otra oportunidad, amor, prometo escribirte
una canción, diciendo que ahora ofrezco la derrota, pero sólo si me perdonas.

   Rhy. Fig. 1
Eb|-------------------------------------------------------|
Bb|-------------------------------------------------------|
Gb|-------------------------------------------------------|
Db|-------------------------------------------------------|
Ab|--5-7-7h9-7-5-4---------3-4-6-4-6-7-7-6-4-4-6-7--------|
Eb|----------------5-0-5-4--------------------------------|

Eb|-------------------------------------------------------|
Bb|-------------------------------------------------------|
Gb|------------------------6------------------------------|
Db|-------------6-7----------7---7-6----------------------|
Ab|-7h9p7p6-7-9--------5/7-----7-----6-3-6-4--------------|
Eb|-------------------------------------------------------|


   01.37     2 veces
Eb|--------------------11\9-------------------------------|
Bb|----12----12------12--------12----12----12p11----------|
Gb|----13----13----13----------13----13-------------------|
Db|-11----11----11----------11----11----11----------------|
Ab|-------------------------------------------------------|
Eb|-------------------------------------------------------|

Eb|--------------------11\9-------------------------------|
Bb|----12----12------12--------12----12---12-11-10--------|
Gb|----13----13----13----------13----13---13-12-11--------|
Db|-11----11----11----------11----11----------------------|
Ab|-------------------------------------------------------|
Eb|-------------------------------------------------------|


Te he pedido demasiada atención, y tienes cosas en que pensar, solo te
                                           Fill 2
quería recordar, que sin ti, yo no soy nadie.

   02.05
Eb|--------------------11\9-------------------------------|
Bb|----12----12------12--------12----12----12p11----------|
Gb|----13----13----13----------13----13-------------------|
Db|-11----11----11----------11----11----11----------------|
Ab|-------------------------------------------------------|
Eb|-------------------------------------------------------|

Eb|--------------------11\9-------------------------------|
Bb|----12----12------12--------12----12---12-11-10--------|
Gb|----13----13----13----------13----13---13-12-11--------|
Db|-11----11----11----------11----11----------------------|
Ab|-------------------------------------------------------|
Eb|-------------------------------------------------------|

                                                     Fill 1
Tengo un plan que no me puede fallar, y no hay tiempo que perder,

                                                         Fill 2
para perder de nuevo en pie, los escombros que nos restan.


Coro: 02.27   Tocar Rhy. Fig. 1

Si me perdonas, si me das, otra oportunidad, amor,
prometo escribirte una canción, diciendo que ahora ofrezco la derrota,
pero sólo si me perdonas.

Puente: 02.57   tocar Fill 4 para llegar al próximo coro.

Coro: 03.46    Tocar Rhy. Fig. 1

Si me perdonas, si me das, otra oportunidad, amor,
prometo escribirte una canción, diciendo que ahora ofrezco la derrota,
pero sólo si me perdonas.

   Outro: 04.15
Eb|--------------------11\9-------------------------------|
Bb|----12----12------12--------12----12----12p11----------|
Gb|----13----13----13----------13----13-------------------|
Db|-11----11----11----------11----11----11----------------|
Ab|-------------------------------------------------------|
Eb|-------------------------------------------------------|

Eb|--------------------11\9-------------------------------|
Bb|----12----12------12--------12----12---12-11-10--------|
Gb|----13----13----13----------13----13---13-12-11--------|
Db|-11----11----11----------11----11----------------------|
Ab|-------------------------------------------------------|
Eb|-------------------------------------------------------|

Eb|--------------------11\9-------------------------------|
Bb|----12----12------12--------12----12----12p11----------|
Gb|----13----13----13----------13----13-------------------|
Db|-11----11----11----------11----11----11----------------|
Ab|-------------------------------------------------------|
Eb|-------------------------------------------------------|

Eb|--------------------11\9-------------------------------|
Bb|----12----12------12--------12----12---12--------------|
Gb|----13----13----13----------13----13---13--------------|
Db|-11----11----11----------11----11----11----------------|
Ab|-------------------------------------------------------|
Eb|-------------------------------------------------------|


Arreglos:

   Fill 1                       Fill 2
Eb|-----11-12-11-------------|----------------------------|
Bb|---12---------14-12-11----|---12-11-10-----------------|
Gb|-13-----------------------|--13--12-11-----------------|
Db|--------------------------|----------------------------|
Ab|--------------------------|----------------------------|
Eb|--------------------------|----------------------------|

    Fill 3                      Fill 4   (acústica)
Eb|--------------------------|----------------------------|
Bb|-12-12--12--12-12-12--12--|--12-12---------------------|
Gb|-13-13--13--13-13-13--13--|--13-13---------------------|
Db|-11-11--11--11-11-11--11--|--11-11---------------------|
Ab|--------------------------|----------------------------|
Eb|--------------------------|----------------------------|
Este fichero es trabajo propio de su transcriptor y representa su interpretación personal de la canción. El material contenido en esta página es
para exclusivo uso privado, por lo que se prohibe su reproducción o retransmisión, así como su uso para fines comerciales.

© LaCuerda.net · Aviso Legal · Privacidad