Tablatura para Guitarra de Enrique Bunbury: Sólo si me perdonas
Conexión · Inscripción
Letras y Acordes
Pantalla Completa
Imprimir
Versión Texto
Añadir Favorito
Otras Versiones

Mostrar Diagramas
Desfile Automático
Manipular Acordes
Formato del Texto


Sólo si me perdonas(TAB)

Enrique Bunbury

calidad:
enri0252
AUTOR: Enrique Bunbury, Copi
ALBUM: Pequeño (1999)
Enviado por c|-|risti/-
D#||--------------|--------------|--------------|--------------|--------------|
A#||--------------|--------------|--------------|--------------|--------------|
F#||--------------|--------------|--------------|--------------|--------------|
C#||--------------|--------------|--------------|--------------|--------------|
G#||--------------|--------------|--------------|--------------|--------------|
D#||--------------|--------------|--------------|--------------|--------------|


                                                                   
--------------|-----------------11h-9--|--------------------------|
--------------|--9-10--9-10--9--9------|--10-9--10-9--10--12h-11--|
--------------|--9-9---9-9---9--9------|--9--9--9--9--9-----------|
--------------|------------------------|--------------------------|
--------------|------------------------|--------------------------|
--------------|------------------------|--------------------------|


                                                                             
-----------------11h-9--|--------------------------|-----------------11h-9--|
--9-10--9-10--9--9------|--10-9--10-9--12--11--10--|--9-10--9-10--9--9------|
--9-9---9-9---9--9------|--9--9--9--9--11--11--9---|--9-9---9-9---9--9------|
------------------------|--------------------------|------------------------|
------------------------|--------------------------|------------------------|
------------------------|--------------------------|------------------------|


                                                                               
--------------------------|-----------------11h-9--|--------------------------|
--10-9--10-9--10--12h-11--|--9-10--9-10--9--9------|--10-9--10-9--12--11--10--|
--9--9--9--9--9-----------|--9-9---9-9---9--9------|--9--9--9--9--11--11--9---|
--------------------------|------------------------|--------------------------|
--------------------------|------------------------|--------------------------|
--------------------------|------------------------|--------------------------|


                                                                             
-----------------11h-9--|--------------------------|-----------------11h-9--|
--9-10--9-10--9--9------|--10-9--10-9--10--12h-11--|--9-10--9-10--9--9------|
--9-9---9-9---9--9------|--9--9--9--9--9-----------|--9-9---9-9---9--9------|
------------------------|--------------------------|------------------------|
------------------------|--------------------------|------------------------|
------------------------|--------------------------|------------------------|


                                                                            
--------------------------|------------------|--------------|--------------|
--10-9--10-9--12--11--10--|--9h10h9----------|--------------|--------------|
--9--9--9--9--11--11--9---|--9---------------|--------------|--------------|
--------------------------|------------------|--------------|--------------|
--------------------------|------------------|--------------|--------------|
--------------------------|------------------|--------------|--------------|


                                                            
--------------|--------------|--------------|--------------|
--------------|--------------|--------------|--------------|
--------------|--------------|--------------|--------------|
--------------|--------------|--------------|--------------|
--------------|--------------|--------------|--------------|
--------------|--------------|--------------|--------------|


                                                                         
--------------------|-----------------11h-9--|--------------------------|
--------12--11--10--|--9-10--9-10--9--9------|--10-9--10-9--10--12h-11--|
--------11--11--9---|--9-9---9-9---9--9------|--9--9--9--9--9-----------|
--------------------|------------------------|--------------------------|
--------------------|------------------------|--------------------------|
--------------------|------------------------|--------------------------|


                                                                    
-----------------11h-9--|--------------------------|---------------|
--9-10--9-10--9--9------|--10-9--10-9--12--11--10--|--9------------|
--9-9---9-9---9--9------|--9--9--9--9--11--11--9---|--9------------|
------------------------|--------------------------|---------------|
------------------------|--------------------------|---------------|
------------------------|--------------------------|---------------|


                                                                          
--------------|--------------|----------------------------|--------------|
--------------|--------------|--12-12--12--12-12--12--12--|--------------|
--------------|--------------|--11-11--11--11-11--11--11--|--------------|
--------------|--------------|----------------------------|--------------|
--------------|--------------|----------------------------|--------------|
--------------|--------------|----------------------------|--------------|


                                                                    
--------------|--------------|--------------------|----------------|
--------------|--------------|--------12--11--10--|----------------|
--------------|--------------|--------11--11--9---|----------------|
--------------|--------------|--------------------|--0------2------|
--------------|--------------|--------------------|----------------|
--------------|--------------|--------------------|----------------|


                                                                     
-----------------|----------------|----------------|----------------|
-----------------|----------------|----------------|----------------|
-----------------|----------------|----------------|----------------|
--4------2----0--|----------------|----------------|----------------|
-----------------|--4------0------|---------0------|---------3------|
-----------------|----------------|--0-------------|--4-------------|


                                                                             
----------------|--------------------|---------------------|----------------|
----------------|--------------------|---------------------|----------------|
----------------|--------------------|---------------------|---------1------|
---------1------|-----1--2--2--1-----|-----1--2--1h2h1--2--|--4-------------|
--4-------------|--4--------------4--|--4------------------|----------------|
----------------|--------------------|---------------------|----------------|


                                                                    
----------------|----------------|----------------|----------------|
---------3------|--2-------------|----------------|----------------|
--2-------------|---------2------|---------2------|--1-------------|
----------------|----------------|--2-------------|---------1------|
----------------|----------------|----------------|----------------|
----------------|----------------|----------------|----------------|


                                                                  
----------------|---------------|--------------|----------11h-9--|
----------------|---------------|--------------|----------9------|
----------------|---------------|--------------|----------9------|
---------1------|---------------|--------------|-----------------|
--3-------------|--4------------|--------------|-----------------|
----------------|---------------|--------------|-----------------|


                                                                               
--------------------------|-----------------11h-9--|--------------------------|
--10-9--10-9--10--12h-11--|--9-10--9-10--9--9------|--10-9--10-9--12--11--10--|
--9--9--9--9--9-----------|--9-9---9-9---9--9------|--9--9--9--9--11--11--9---|
--------------------------|------------------------|--------------------------|
--------------------------|------------------------|--------------------------|
--------------------------|------------------------|--------------------------|


                                                                             
-----------------11h-9--|--------------------------|-----------------11h-9--|
--9-10--9-10--9--9------|--10-9--10-9--10--12h-11--|--9-10--9-10--9--9------|
--9-9---9-9---9--9------|--9--9--9--9--9-----------|--9-9---9-9---9--9------|
------------------------|--------------------------|------------------------|
------------------------|--------------------------|------------------------|
------------------------|--------------------------|------------------------|


                                                                         
--------------------------|---------------|--------------|--------------|
--10-9--10-9--12--11--10--|--9------------|--------------|--------------|
--9--9--9--9--11--11--9---|--9------------|--------------|--------------|
--------------------------|---------------|--------------|--------------|
--------------------------|---------------|--------------|--------------|
--------------------------|---------------|--------------|--------------|


                                                            
--------------|--------------|--------------|--------------|
--------------|--------------|--------------|--------------|
--------------|--------------|--------------|--------------|
--------------|--------------|--------------|--------------|
--------------|--------------|--------------|--------------|
--------------|--------------|--------------|--------------|


                                                                         
--------------------|-----------------11h-9--|--------------------------|
--------12--11--10--|--9-10--9-10--9--9------|--10-9--10-9--10--12h-11--|
--------11--11--9---|--9-9---9-9---9--9------|--9--9--9--9--9-----------|
--------------------|------------------------|--------------------------|
--------------------|------------------------|--------------------------|
--------------------|------------------------|--------------------------|


                                                                    
-----------------11h-9--|--------------------------|---------------|
--9-10--9-10--9--9------|--10-9--10-9--12--11--10--|--9------------|
--9-9---9-9---9--9------|--9--9--9--9--11--11--9---|--9------------|
------------------------|--------------------------|---------------|
------------------------|--------------------------|---------------|
------------------------|--------------------------|---------------|


                                                                     
--------------|--------------|--------12--11--9----|----------------|
--------------|--------------|--------9---------12-|--11------------|
--------------|--------------|--------9------------|----------------|
--------------|--------------|---------------------|----------------|
--------------|--------------|---------------------|----------------|
--------------|--------------|---------------------|----------------|


                                                                    
--------------|--------------|--------------------|----------------|
--------------|--------------|--------12--11--10--|----------------|
--------------|--------------|--------11--11--9---|----------------|
--------------|--------------|--------------------|--0------2------|
--------------|--------------|--------------------|----------------|
--------------|--------------|--------------------|----------------|


                                                                     
-----------------|----------------|----------------|----------------|
-----------------|----------------|----------------|----------------|
-----------------|----------------|----------------|----------------|
--4------2----0--|----------------|----------------|----------------|
-----------------|--4------0------|---------0------|---------3------|
-----------------|----------------|--0-------------|--4-------------|


                                                                             
----------------|--------------------|---------------------|----------------|
----------------|--------------------|---------------------|----------------|
----------------|--------------------|---------------------|---------1------|
---------1------|-----1--2--2--1-----|-----1--2--1h2h1--2--|--4-------------|
--4-------------|--4--------------4--|--4------------------|----------------|
----------------|--------------------|---------------------|----------------|


                                                                    
----------------|----------------|----------------|----------------|
---------3------|--2-------------|----------------|----------------|
--2-------------|---------2------|---------2------|--1-------------|
----------------|----------------|--2-------------|---------1------|
----------------|----------------|----------------|----------------|
----------------|----------------|----------------|----------------|


                                                                 
----------------|---------------|--------------|----------9--9--|
----------------|---------------|--------------|----------9--9--|
----------------|---------------|--------------|----------9--9--|
---------1------|---------------|--------------|----------------|
--3-------------|--4------------|--------------|----------------|
----------------|---------------|--------------|----------------|


                                                                    
----------9--9--|----------9--9--|----------9--9--|----------9--9--|
----------9--9--|----------9--9--|----------9--9--|----------9--9--|
----------9--9--|----------9--9--|----------9--9--|----------9--9--|
----------------|----------------|----------------|----------------|
----------------|----------------|----------------|----------------|
----------------|----------------|----------------|----------------|


                                                                    
----------9--9--|----------9--9--|----------9--9--|----------9--9--|
----------9--9--|----------9--9--|----------9--9--|----------9--9--|
----------9--9--|----------9--9--|----------9--9--|----------9--9--|
----------------|----------------|----------------|----------------|
----------------|----------------|----------------|----------------|
----------------|----------------|----------------|----------------|


                                                                             
----------9--9--|--------------|--------------|--------------|--------------|
----------9--9--|--------------|--------------|--------------|--------------|
----------9--9--|--------------|--------------|--------------|--------------|
----------------|--------------|--------------|--------------|--------------|
----------------|--------------|--------------|--------------|--------------|
----------------|--------------|--------------|--------------|--------------|


                                                                    
----------9--9--|----------9--9--|----------9--9--|----------9--9--|
----------9--9--|----------9--9--|----------9--9--|----------9--9--|
----------9--9--|----------9--9--|----------9--9--|----------9--9--|
----------------|----------------|----------------|----------------|
----------------|----------------|----------------|----------------|
----------------|----------------|----------------|----------------|


                                                                    
----------9--9--|----------9--9--|----------9--9--|----------9--9--|
----------9--9--|----------9--9--|----------9--9--|----------9--9--|
----------9--9--|----------9--9--|----------9--9--|----------9--9--|
----------------|----------------|----------------|----------------|
----------------|----------------|----------------|----------------|
----------------|----------------|----------------|----------------|


                                                                               
----------9--9--|----------9--9--|--------------|--------------|--------------|
----------9--9--|----------9--9--|--------------|--------------|--------------|
----------9--9--|----------9--9--|--------------|--------------|--------------|
----------------|----------------|--------------|--------------|--------------|
----------------|----------------|--------------|--------------|--------------|
----------------|----------------|--------------|--------------|--------------|


                                                                   
--------------|----------------|-----------------|----------------|
--------------|----------------|-----------------|----------------|
--------------|----------------|-----------------|----------------|
--------------|--0------2------|--4------2----0--|----------------|
--------------|----------------|-----------------|--4------0------|
--------------|----------------|-----------------|----------------|


                                                                        
----------------|----------------|----------------|--------------------|
----------------|----------------|----------------|--------------------|
----------------|----------------|----------------|--------------------|
----------------|----------------|---------1------|-----1--2--2--1-----|
---------0------|---------3------|--4-------------|--4--------------4--|
--0-------------|--4-------------|----------------|--------------------|


                                                                         
---------------------|----------------|----------------|----------------|
---------------------|----------------|---------3------|--2-------------|
---------------------|---------1------|--2-------------|---------2------|
-----1--2--1h2h1--2--|--4-------------|----------------|----------------|
--4------------------|----------------|----------------|----------------|
---------------------|----------------|----------------|----------------|


                                                                   
----------------|----------------|----------------|---------------|
----------------|----------------|----------------|---------------|
---------2------|--1-------------|----------------|---------------|
--2-------------|---------1------|---------1------|---------------|
----------------|----------------|--3-------------|--4------------|
----------------|----------------|----------------|---------------|


                                                                   
--------------|-----------------11h-9--|--------------------------|
--------------|--9-10--9-10--9--9------|--10-9--10-9--10--12h-11--|
--------------|--9-9---9-9---9--9------|--9--9--9--9--9-----------|
--------------|------------------------|--------------------------|
--------------|------------------------|--------------------------|
--------------|------------------------|--------------------------|


                                                                             
-----------------11h-9--|--------------------------|-----------------11h-9--|
--9-10--9-10--9--9------|--10-9--10-9--12--11--10--|--9-10--9-10--9--9------|
--9-9---9-9---9--9------|--9--9--9--9--11--11--9---|--9-9---9-9---9--9------|
------------------------|--------------------------|------------------------|
------------------------|--------------------------|------------------------|
------------------------|--------------------------|------------------------|


                                                                     
--------------------------|-----------------11h-9--|---------------||
--10-9--10-9--10--12h-11--|--9-10--9-10--9--9------|--9------------||
--9--9--9--9--9-----------|--9-9---9-9---9--9------|--9------------||
--------------------------|------------------------|---------------||
--------------------------|------------------------|---------------||
--------------------------|------------------------|---------------||
Este fichero es trabajo propio de su transcriptor y representa su interpretación personal de la canción. El material contenido en esta página es
para exclusivo uso privado, por lo que se prohibe su reproducción o retransmisión, así como su uso para fines comerciales.

© LaCuerda.net · Aviso Legal · Privacidad