Acordes de Guitarra » E »Enanitos Verdes » Tus viejas cartas (Tab)

Tus viejas cartas
Enanitos Verdes

Letras, Acordes y Tabs para Guitarra, Bajo y Ukulele

  • INTRO [G Em Am D]
    
       G
    Estuve leyendo 
     Em
    tus viejas cartas
        Am
    donde me hablabas
     D
    de amor
      G
    usando palabras 
        Em
    querias decirme
     Am
    ya no puedo estar 
         D
    sin vos
    
       C        D   Em
    
  • intro:SOL MI-7 LA-7 RE4sus RE
    SOL               MI-7
    Estuve leyendo tus viejas cartas
    LA-7                RE
    donde me hablabas de amor.
    SOL                MI-7
    Usando palabras querías decirme
     LA-7                  RE4sus RE
    'ya no puedo estar sin vos'.
         DO   RE     MIm  DO           RE  MIm
    Y dónde quedó ahora, esa hermosa ilusión
     DO             RE         FA       RE
    de regalarte a vos, lo mejor de mi amor.
    
    Creímos que todo había cambiado.
    No había razón ya para estar mal.
    Pero el otoño golpeó nuestra puerta
    y como una hoja nuestro amor murió.
        DO   RE     MIm  DO           RE  MIm
    Y dónde quedó ahora, esa hermosa ilusión
    
  • EL SOLO de tus viejas cartas del disco traccion acustica
    
    __ 
      \ 
    _  e|-----------------------I------------------------------
    _) B|---------8--12/10/8-8--I---------8--12/10/8-8---------
       G|--9--11----------------I--9--11-----------------11--9-
    _  D|-----------------------I------------------------------
    _) A|-----------------------I------------------------------
       E|-----------------------I------------------------------
    __/
    
    
    __ 
      \ 
    _  e|----------------------------------------------------
    _) B|------------8--7------------------------------------
       G|------7--9--------7--9------------------7-----------
    _  D|--8/9-------------------7/9--10--9--10-----5/7--5---
    _) A|----------------------------------------------------
       E|----------------------------------------------------
    __/
    
    
    __ 
      \ 
    _  e|-----------------I----7--10---------
    _) B|--8/10--8--7--7--I--8--------8------
       G|-----------------I------------------
    _  D|-----------------I-----------------
  • Intro: G Em Am D
    
       G
    Estuve leyendo 
     Em
    tus viejas cartas
        Am
    donde me hablabas
     D
    de amor
      G
    usando palabras 
        Em
    querias decirme
     Am
    ya no puedo estar 
         D
    sin vos
    
       C        D   Em
    
  • e-------------------|-----------------------|---------------
    b---8-10-11-10-8-10-|---8-10-11-10-8-10-----|---5-7-8-7---5-
    g-9-----------------|-9-----------------9-7-|-7---------7---
    d-------------------|-----------------------|---------------
    a-------------------|-----------------------|---------------
    E-------------------|-----------------------|---------------
    
    
    e-------------------|-----------|---7-10---|---------------------------------|
    b-------------------|-11-10-8-7-|-8------8-|-15-17--19-20-19-17-15-17-15^-12-|
    g-------------------|-----------|----------|---------------------------------|
    d-5/7-5---5-7-------|-----------|----------|---------------------------------|
    a-------7-----5/7-5-|-----------|----------|---------------------------------|
    E-------------------|-----------|----------|---------------------------------|
    
    
    e-------------------|------10----|
    b---8-10-11-10-8-10-|-12^-----12-|
    g-------------------|------------|
    d-------------------|-----------
  •   Asus
     E x
     B 3
     G 2
     D 2
     A 0
     E x
    
    Intro: CON CAPO
    
      A     Bm     A      Bm    G           Asus A
    e---5----2-------5----2-------3----------------
    B-5---5--3-----5---5--3-----3---3--------3-3-2-
    G-6------4--4--6------4--4--4-----4---4--2---2-
    D-7------4-4---7------4-4---5-------5----2---2-
    A-7------2-----7------2-----5------------0---0-
    E-5------------5------------3------------------
    
    Intro: SIN CAPO
      D         Em    D         Em    A#           Dsus  D
    
  • +
    ¡Colabora con nosotros!
    Envíanos tu versión de esta canción
  • Tutorial
    HD
    Como tocar "Tus viejas cartas" de Los enanitos verdes
    7:59

Letra de Tus viejas cartas
Estuve leyendo
tus viejas cartas
donde me hablabas
de amor
usando palabras
querias decirme
ya no puedo estar
sin vos
Y donde quedo ahora
esa hermosa ilusion
de regalarte a vos
lo mejor de mi amor
Creimos que todo
habia cambiado
no habia razon
ya para estar mal
pero el otono
golpeo nuestra puerta
y como una hoja
nuestro amor murio
Y donde quedo ahora
esa hermosa ilusion
de regalarte a vos
lo mejor de mi amor
A veces los sentimientos
no se pueden manejar
y cuando nos atrapan
no podemos escapar
y es asi, nuestro corazon sufre
Y sigue y sigue
dando vueltas y vueltas
la loca rueda de la vida
y sigue rodando en mi cabeza
el enigma cautivante de tu voz
Y donde quedo ahora
esa hermosa ilusion
de regalarte a vos
lo mejor de mi amor
lo mejor de mi amor
lo mejor de mi amor
de mi amor




[Tus viejas cartas chords][Tus viejas cartas cifra]
© LaCuerda.net · aviso legal · privacidad · es · en · pt · contacto