Acordes de Guitarra » E »Enanitos Verdes » Te ví en un trén (Tab)

Te ví en un trén
Enanitos Verdes

  • Letra y Acordes
    G D G D C B G E G G = SOL DO  (2 Veces)
    
    
              SOL       SIm       DO      SOL
    1.-)Yo te vi en un tren preocupada de mas
                 LA      LA7           RE   RE4
        quise ayudarte y ya no estabas mas
    
    
          SOL       SIm            DO        SOL
    me colgué del vagón que ya empezaba a correr
            LA        LA7        RE   RE4
    entusiasmado como la primera vez
    
    
                      MIm LA                   MIm DO
    Y al fin te encontré     y al fin te encontré
         LA        LA7          RE   RE7
    y no pude ni siquiera decir ho...la
    
    
  • Tablatura
        SOL             DO
    
     |-------10---8-7-------------|
     |-8---8----------8-10--8~----|
     |---7------------------------|
     |----------------------------|
     |----------------------------|
     |----------------------------| (2 veces)
    
          MIm       SIm       DO      SOL
        Yo te vi en un tren preocupada de mas.
                 LA      LA7            RE
        quise ayudarte y ya no estabas más.
    
              MIm       SIm            DO        SOL
        me colgué del vagón que ya empezaba a correr
            LA        LA7            RE
        entusiasmado como la primera vez.
    
                         MIm-LA                     MIm-DO
    
  • Tablatura
    -----------------------------------------------------------------------
    
             Riff 1                    Riff 2          Riff 3     Riff 4
    
    e--5----5h7-5-3-2--------|--5----10h12-10-8-7~~--|---------|----------|
    B----7~-----------3h5~~--|----7~-----------------|---------|----------|
    G------------------------|-----------------------|---------|----------|
    D------------------------|-----------------------|--2s7~~--|--2s10~~--|
    A------------------------|-----------------------|--2s7~~--|--2s10~~--|
    E------------------------|-----------------------|---------|----------|
    
    
        Riff 5        Riff 6
    
    e------------|-------------|
    B--5s10------|--5s13-------|
    G--4s9-------|--4s12-------|
    D-------7~~--|-------10~~--|
    A-------7~~--|-------10~~--|
    E------------|-------------|
    
  • Tab p/Bajo
    !hola a todos¡ bueno esta en mi primera tab para bajo que hago 
     Esta cancion esta muy facil. Bueno pues ahi le va. 
    
      Intro:
    G |---------------------------------------------|
    D |---------------------------------------------|
    A |----------------------3-3-3-3-3-3-3-3-3-3-3-3|
    E |-3-3-3-3-3-3-3-3-3---------------------------|
    
      Verso:
    G |---------------------------------|
    D |---------------------------------|
    A |----------2--2-2---3--3-3--------|
    E |--0--0-0-------------------3--3-3|
    
    G |----------------------------------------|          
    D |-----------------4-4--5-5--4-4----------|                            
    A |-------4-4--7-7-----------------7-7--4-4|
    E |--5-5-----------------------------------|
    
             
    G |-----------------4-4--5-5--4-4----------|                            
    D |-------4-4--7-7-----------------7-7--4-4|
    A |--5-5-----------------------------------|
    E |----------------------------------------|          
    
     yo te vi en un tren
    
    G |--------
  • Piano (Teclados)
    [        3 Octava           ][       4 Octava           ]
    
    ___do#_re#____fa#_sol#_la#___ _do#_re#___ fa#_sol#_la#_
    |  | | | |  |  | | | | | |  |  | | | |  |  | | | | | |  |
    |  | | | |  |  | | | | | |  |  | | | |  |  | | | | | |  |
    |  |_| |_|  |  |_| |_| |_|  |  |_| |_|  |  |_| |_| |_|  |
    |   |   |   |   |   |   |   |   |   |   |   |   |   |   |
    |___|___|___|___|___|___|___|___|___|___|___|___|___|___|
    
     Do  re   mi fa  sol la  si
    Intro
     3      3     3    4
    Fa#-do#-fa#-do#
    3    3    3     3    3
    Si-la#-fa#-sol#-fa#
    3      3     3    4
    Fa#-do#-fa#-do#
    3    3    3     3    3
    Si-la#-fa#-sol#-fa#
    Yo te vi en un tren
    Preocupada de mas.
    Quise ayudarte
    Y ya no estabas mas.
    
    Me colgué del vagón
    Que ya empezaba a correr,
    Entusiasmado,
    Como la primera vez.
    
    Y al fin te encontré,
    Y al fin te encontré,
    Y no pude ni siquiera
    Decir hola.
    
    3      3     3    4
    Fa#-do#-fa#-do#
    3    3    3     3    3
    Si-la#-fa#-sol#-fa#
    3      3     3    4
    Fa#-do#-fa#-do#
    3    3    3     3    3
    Si-la#-fa#-sol#-fa#
    
    I
  • +
    ¡Colabora con nosotros!
    Envíanos tu versión de esta canción
  • Tutorial
    Yo te vi en un tren - Enanitos verdes - Como tocar en Guitarra
    3:57
  • Tutorial
    HD
    Explicado - Como tocar "Te vi en un tren" de Enanitos Verdes en el bajo tutorial#148
    16:05

Letra de Te ví en un trén
1.-)Yo te vi en un tren preocupada de mas
quise ayudarte y ya no estabas mas
me colgué del vagón que ya empezaba a correr
entusiasmado como la primera vez
Y al fin te encontré y al fin te encontré
y no pude ni siquiera decir ho...la
2.-)Intente conversar preguntarte la edad
como te llamabas en que estación pensabas bajar
y no supe que decir me engañaba al hablar
alucinado sin ninguna razón
3.-)y yo te vi en un tren yo te vi en un tren
y no pude ni siquiera decir ho..la
Repetir estrofas 1-2-3 (Introducción 3 veces)
yo te vi en un tren, yo te vi en un tren (4 veces)



© LaCuerda.net · aviso legal · privacidad · contacto