Acordes de Guitarra » E »Enanitos Verdes » Por el resto (Tab)

Por el resto
Enanitos Verdes

Letras, Acordes y Tabs para Guitarra, Bajo y Ukulele

  • Am7 Dm  F (x6)
    
    
    Am7                                    Dm       
    Nunca necesitaste a nadie para vivir
          F                       Am7
    Ni siquiera te fijaste que había a tu alrededor
     Am7                           Dm
    Desesperado mirabas las paredes de tu habitación
             F                        E
    Y gritaste fuerte pero nadie te conoció
    
              F      
    Y ahora tendrás que seguir
               Dm        G
    Cargando tu cruz 
    
    Am7                        Dm              F
    Por el resto de tus días, por el resto de tus días (x2)
    
    
  •   Intro [Amadd9  Dm  F]
    
    Amadd9                Dm         F
    
    e:I-0-0-------0-0-------5-5--------------------I
    B:I-0---0-----0---0-----6---6------------6-----I
    G:I-5-----5---5-----5---7------7-------5---5---I
    D:I-7---------7---------7--------7---7-------7-I
    A:I-0---------0---------5----------8-----------I
    E:I--------------------------------------------I
    
    
    Amadd9                                Dm
      Nunca necesitaste a nadie para vivir.
            F                                       Amadd9
      Ni siquiera te fijaste que habia a tu alrededor....
             Amadd9                                   Dm
      Desesperado mirabas las paredes de tu habitación
             F                                  E7
      y gritaste muy fuerte pero nadie te conocio...
    
  • Enanitos Verdes – Por El Resto
    
    Bueno aquí les traigo el solo de la versión del cd este solo es el
    99% verdadero no como los otros...
    
    E|-----------------------------------------|
    B|---15--16--17----------------------------|
    G|---17b-18b-19b--19b-(19)-17-19---(19)-17-|
    D|----------------------------------wb-----|
    A|-----------------------------------------|
    E|-----------------------------------------|
    
    E|--12-15b-(15)-12-15-12/--------------|
    B|-------------------------/13-(15)-13-|
    G|------------------------------wb-----|
    D|-------------------------------------|
    A|-------------------------------------|
    E|-------------------------------------|
    
    E|-----------------------------------------------------------------|
    B|-------------------------------------------12-13p12-----13-15p13-|
    G|------------------------------12-14p12--14-----------14----------|
    D|-----------------10-12p10--14------------------------------------|
    A|-----10-12p10-12-------------------------------------------------|
  • B:---0-------0----0-------0-----I---6----6-----------5------I
    G:---5---------5--5---------5---I---7------7-------5---5----I
    D:---5--5---------5--5----------I---7------------7-------7--I
    A:---0------------0-------------I---5----------8------------I
    E:------------------------------I---------------------------I
    
    
    e:---0-----0------0-----0-------I---5--5-------------5-5-5--I
    B:---0-------0----0-------0-----I---6----6-----------6-6-6--I
    G:---5---------5--5---------5---I---7------7-------5-5-5-5--I
    D:---5--5---------5--5----------I---7------------7----------I
    A:---0------------0-------------I---5----------8------------I
    E:------------------------------I---------------------------I
    
    
    e:---0-----0------0-----0-------I---5--5-------------5-5-5--I
    B:---0-------0----0-------0-----I---6----6-----------6-6-6--I
    G:---5---------5--5---------5---I---7------7-------5-5-5-5--I   x 6
    D:---5--5---------5--5----------I---7------------7----------I
    A:---0------------0-------------I---5----------8------------I
    
  •         G                      Am
    
    E----------------------------------------------------|
    A----------------------------------------------------|
    D----------------------------------------------------|
    G---17b-17b-17b--19b--------------wb------------wb---|
    B---15--15--15---17----17b-(17)---15-----(15)---13---|
    E----------------------------------------------------|
          F                                Dm
    
    E---------------------------------------------------|
    A---------------------------------------------------|
    D---------------------------------------------------|
    G-----------------------------------wb----------wb--|
    B-17h21p17--------17h21p17------17--15---(15)---13--|
    E----------17b--------------17b---------------------|
          Am
    
    E---------------------------------------------------|
    A-10-12-10-12---------------------------------------|
    
  • B:I----------------------------------I----------------------------------I
    G:I-/5----/7----/9----/10-----/12----I-10--9--7--7s9--------------------I
    D:I----------------------------------I----------------5-5h7--5-5p2------I
    A:I----------------------------------I-----------------------------5----I
    E:I----------------------------------I-------------------------------5~-I
    
    e:I----5-----7-----8------10------12-12-I-12-12--15--12--12-12--13--12-12-I
    B:I-------------------------------------I---------------------------------I
    G:I-/5----/7----/9----/10-----/12-------I-12-12--16--12--12-12--14--12-12-I
    D:I-------------------------------------I---------------------------------I
    A:I-------------------------------------I---------------------------------I
    E:I-------------------------------------I---------------------------------I
    
    e:I-------8-7--------------------I-------------------7-8--8s10--8-7-8----7
    B:I-----8-----8------------------I------------7-8-10------------------10---
    G:I-5s7---------7s5--4h5--5s7----I--------7-9------------------------------
    D:I---------------------------5~-I-5s7-10----------------------------------
    A:I------------------------------I----------------------------------------
    E:I------------------------------I----------------------------------------
    
    
  • Este es el bajo de la versión unplugged:
    
    Introducción (esperar hasta que entre el bajo):
    
             Am             Dm         F
    G|------------------|---------|---------|
    D|------------------|---------|---------|
    A|--------------3-4-|-5-5-5-7-|-8-8-----|
    E|-5-5-0-3-5--5-----|---------|-----8-7-| x6
    
    Canto:
    
             Am                 F                 Dm
    G|-----------------|-----------------|-----------------|
    D|-7-7---5-7-7---5-|-----------------|-----------------|
    A|-----7-------7---|-8-8---7-8-8---7-|-5-5---3-5-5---5-|
    E|-----------------|-----8-------8---|-----5-------5---|
    
            Am
    G|-----------------|
    D|-7-7---5-7-7---5-|
    A|-----7-------7---|
    E|-----------------|
             Am                 F                 Dm
    G|-----------------|-----------------|-----------------|
    D|-7-7---5-7-7---5-|-----------------|-----------------|
    A|-----7-------7---|-8-8---7-8-8---7-|-5-5---3-5-5---5-|
    E|-----------------|-----8-------8---|-----5-------5---|
    
              
  • +
    ¡Colabora con nosotros!
    Envíanos tu versión de esta canción
  • Tutorial
    Por el Resto - Enanitos Verdes - Como tocar en guitarra acustica acordes
    6:49

Letra de Por el resto
Nunca necesitaste a nadie para vivir
Ni siquiera te fijaste que había a tu alrededor
Desesperado mirabas las paredes de tu habitación
Y gritaste fuerte pero nadie te conoció
Y ahora tendrás que seguir
Cargando tu cruz
Por el resto de tus días, por el resto de tus días (x2)
Creias que la balanza siempre estaba a tu favor
Y lo mejor de todo es que solo lo creias vos
Y el amor que esperas solo, solo depende de ti
Y ahora tendrás que seguir
Cargando tu cruz
Por el resto de tus días, por el resto de tus días (x2)
Y ahora tendrás que seguir
Cargando tu cruz
Por el resto de tus días, por el resto de tus días (x2)




[Por el resto chords][Por el resto cifra]
© LaCuerda.net · aviso legal · privacidad · es · en · pt · contacto