Tablatura para Guitarra de Enanitos Verdes: O quizas vos
Conexión · Inscripción
Letras y Acordes
Pantalla Completa
Imprimir
Versión Texto
Añadir Favorito
Otras Versiones

Mostrar Diagramas
Desfile Automático
Manipular Acordes
Formato del Texto


O quizas vos(TAB)

Enanitos Verdes

calidad:
enan1004
AUTOR: H. Cantero
ALBUM: 20 Grandes Exitos
Enviado por alberto
Otra de esas canciones para cortarse las venas a la que nadie le puso
su punteo ,espero colaborar en algo poniendolo yo

Primer Punteo
  2:46               2:51 2:52                                 2:58
e|-12--10-8---8----------|---8--------------------------------------|
B|----------12-8---------|--8-8-----------------------------8-10-8--|
G|-----------------------|-----9---7----7-------------7-9-10--------|
D|-----------------------|----------10-9--------7-9-10--------------|
A|-----------------------|--------------------10--------------------|

  2:59                      3:03
e|--15-14-13-12----12-----------|
B|-8-------------15--13-12-15---|
G|---------------------------12-|

  3:04                                          3:10
e|---------------12-12-----15-14-13-12--------------|
B|------12-13-------------------------15-13-12------|
G|12-14--------12--------12-------------------14-12-|


Punteo Final

  3:50          3:53    3:56          3:59
e|------8----------------8--------------------|
B|-------10-8-------------10-8----------------|
G|---7-9-----9-7--99----------9-7--9-7--99----|
D|-10-----------10---------------10---10------|


|----Tengo mis dudas aqui------|
4:03                       4:06
e|121212-101010------------------|
B|------------13-13-13-12-13-12--|
G|-------------------------------|
D|-------------------------------|


  4:10                 4:16
e|-------------------------|
B|-5-3-3--3/5/3------------|
G|----5-5------5-2-2/4-----|
Este fichero es trabajo propio de su transcriptor y representa su interpretación personal de la canción. El material contenido en esta página es
para exclusivo uso privado, por lo que se prohibe su reproducción o retransmisión, así como su uso para fines comerciales.

© LaCuerda.net · Aviso Legal · Privacidad