Acordes de Guitarra » E »Enanitos Verdes » Mil horas (Tab)

Mil horas
Enanitos Verdes

Letras, Notas, Punteos, Tablaturas y Acordes de Guitarra (Tabs & Chords)

  • Letra y Acordes
    E-4-4-2-4-4-2-4-4-2-4-4-2---------------------------
    A-4-4-2-4-4-2-4-4-2-4-4-2----6-6-4-6-6-4-6-6-4-6-6-4
    D---------------------------------------------------
    G---------------------------------------------------
    
    
    intro
    
    G#m/C#m/D#m/E
    
    
    Esta parte se toca solamente con un rasgueo
    
          G#m     C#m          G#m
    Hace frio y estoy lejos de casa
         C#m              D#m               G#m
    hace tiempo ke estoy sentado sobre esta piedra
            C#m         D#m           G#m
    yo me pregunto para ke sirven las guerras
    
    
  • Letra y Acordes
            G#m                    C#m7             D#m7
    E-4-4-2-4-4-2-4-4-2-4-4-/--------------/---------------
    A-----------------------/--2-4-4-2-4-4-/-4-6-6-4-6-6---
    D-----------------------/--------------/---------------
    G-----------------------/--------------/---------------X2
    
    
    Y aqui comienza la guitarra:
    
            G#m                 C#m7            D#m7
    e-------------------/----------------/-----------------
    B-------------------/--9--11-12-12-11/----9-11-11-9----
    G--8--10-11-11-10--8/----------------/-11--------------
    D-------------------/----------------/-----------------
    A-------------------/----------------/-----------------
    E-------------------/----------------/-----------------X2
    
    
          C#m7    D#m7         G#m
    Hace frío y estoy lejos de casa,
    
  • Tablatura
    e--------------------------------------------------------------------
    b--------------------------------------------------------------------
    g--------------------------------------------------------------------
    d--------------------------------------------------------------------
    a----------------------------------2-4-4--2-4-4--2-4-4--2-4-4--------
    e-4-4--2-4-4--2-4-4--2-4-4-------------------------------------------
    
    
    e---------------------------------------------------------------------
    b---------------------------------------------------------------------
    g---------------------------------------------------------------------
    d------------------------------------------------------2-4-4--2-4-4---
    a------------------------------------2-4-4--2-4-4---------------------
    e--2-4-4--2-4-4--2-4-4--2-4-4-----------------------------------------
    
    
    mientras el bajo hace eso, una guitarra toca estos acordes
    con un solo rasgeo
    
          C#7             D#7             G#m
    
  • Tab p/Bajo
    INTRO:
    
    0)-----
    
    G--------------------------------------------------------------------
    D--------------------------------------------------------------------
    A----------------------------------2-4-4--2-4-4--2-4-4--2-4-4--------
    E-4-4--2-4-4--2-4-4--2-4-4-------------------------------------------
    
    
    G---------------------------------------------------------------------
    D------------------------------------------------------2-4-4--2-4-4---
    A------------------------------------2-4-4--2-4-4---------------------
    E--2-4-4--2-4-4--2-4-4--2-4-4-----------------------------------------
    
    
    1)------
    
    e------------------------------------------------------------------
    b------------------------------------------------------------------
    g------------------------------------------------------------------
    d------------------------------------------------------------------
    a--------------------------------------------3-0-----------3-0-----
    e--5----5-0-3-5---5-0-3-5----5-0-3-5-------5-----
  • Tab p/Bajo
    INTRO ES ESTE SOLO FACIL…
    
    G--------------------------------------------------------------------
    D--------------------------------------------------------------------
    A----------------------------------2-4-4--2-4-4--2-4-4--2-4-4--------
    E-4-4--2-4-4--2-4-4--2-4-4-------------------------------------------
    
    
    G---------------------------------------------------------------------
    D------------------------------------------------------2-4-4--2-4-4---
    A------------------------------------2-4-4--2-4-4---------------------
    E--2-4-4--2-4-4--2-4-4--2-4-4-----------------------------------------
    
    Entra requinto, y haces lo mismo...
    
    (Hace frío, estoy lejos de casa..) (0.25 Sec.)
    
    G-------------------------------------
    D---------------------6-6-6-6-6-6-6-6- (x3 veces)
    A-4-4-4-4-4-6-6-6-6-6-----------------
    E-------------------------------------
    
    (Tengo un cohete en el pantalón...) (0.45 Sec.)
    (Esta parte va mas o menos rápida así ke le tienen
    ke agarrar el ritmo bien pa ke suene poka!!)
    
    G--
  • Batería
    Cr=Crash 16"
    C2=Crash 18"
    CH=China
    Rd=Ride  20"
    Hh=Hit hats 14"
    Ta=Tarola
    T1=Tom 1
    T2=Tom 2
    Tp=Tom de piso
    Bo=Bombo
         d(dos golpes rapidos)
    (Esta cancion es en octavos los hit hats)
    
    
    (esta cancion se maneja en octavos)
    
    
    
    Intro
    (min.00.00)
      (--x7---)
    Cr|-------|------X|
    C2|-------|-------|
    Hh|x-x-x-x|x-x-x--|
    Ta|-------|------o|
    Bo|o-o-o-o|o-o-o--|
    
    Intro
    (min.00.13)
              (--x3---)
    C2|X------|-------|
    Hh|--x-x-x|x-x-x-x|
    Ta|--o---o|--o---o|
    Bo|o---o--|o---o--|
    
    Intro
    (min.00.19(--x3---)
    Cr|X------|-------|
    Hh|--x-x-x|x-x-x-x|
    Ta|--o---o|--o---o|
    Bo|o---o--|o---o--|
    
    (hace frio y estoy lejos de casa
     hace tiempo q estoy sentado sobre esta piedra
    yo me pregunto ¿para q sirven las guerras?
    (min.00.25)
      (--x11--)
    Hh|x-x-x-x|
    Bo|o-o-o-o|
    
    (este remate es en el min.00.42
    aqui es el mismo ritmo
    solo q lo puse en dieciseisavos)
    
    Hh|x---x---x---x|
    Ta|------------o|
    Tp|---------oo--|
    Bo|o---o---o--o-|
    
    pre coro
    (tengo un cohete en el pantalon
    vos estas tan fria
    como la nieve a mi alr
  • +
    ¡Colabora con nosotros!
    Envíanos tu versión de esta canción

Letra de Mil horas
G#m/C#m/D#m/E
Esta parte se toca solamente con un rasgueo
Hace frio y estoy lejos de casa
hace tiempo ke estoy sentado sobre esta piedra
yo me pregunto para ke sirven las guerras
Aqui ya empieza el ritmo normal:
llevo un cohete en mi pantalón
por si estas dormida
como la nieve a mi alrededor
por si estas clara
y ya no se ke hacer
la otra noche te espere bajo la lluvia
2 horas mil horas como un perro
y cuando llegaste me miraste
y me dijiste loco estas mojado
ya no te kiero



© LaCuerda.net · Aviso Legal · Privacidad