Acordes de Guitarra » E »Enanitos Verdes » No me verás (Tab)

No me verás
Enanitos Verdes

Letras, Acordes y Tabs para Guitarra, Bajo y Ukulele

  • 1)         E
      No me veras, no me veras
           C#7      F#m
      abrazado recuerdos
          A                  E
      la vida es demasiado corta
            F#7            B7
      para vivirla en el pasado.
    
    
    1)         
      No me veras, no me veras
      si algun dia caigo
      no quiero que te pongas triste
      si yo estoy mal, de verme mal.
    
    
    2)         E
      No me veras, no me veras
             C#m  F#m
    
  • G
    No me veras, no me veras       
         E        Am
    abrazando recuerdos                        
         C                Em
    la vida es demasiado corta                      
            A               D
    para vivirla en el pasado         
            G
    No me veras, no me veras 
               E  Am
    si algun dia caigo  
         C                   Em
    no quiero que te pongas triste
                A             D  
    si yo estoy mal, de verme mal
            A
    No me veras, no me veras         
          E          Am 
    Pidiendote revancha                        
    
  •           G      
    No me veras, no me veras   
          E          C
    abrazando recuerdos   
                           Bm      
    la vida es demasiado corta 
            A              D 
    para vivirla en el pasado      
    
             G  
    No me veras, no me veras 
              E    
    si algun dia caigo  
          C                  Bm
    no quiero que te pongas triste
                   A              D    
    si yo estoy mal, de verme mal       
    
             G
    No me veras, no me veras        
    
  •          A      
    No me veras, no me veras
          F#     Bm
    abrazando recuerdos
        D                 A
    la vida es demasiado corta
           B             E
    para vivirla en el pasado
    
    
    e--5-4-2--------|
    B--------5-3-2--|
    G---------------|
    D---------------|
    A---------------|
    E---------------|
    
             A
    no me veras, no me veras
              F#   Bm
    
  •     este es es solo de 'no me veras' en tracción acustica de los enanos esta sencillo y chido
        que lo disfruten quejas o sugerencias escribanme este solo es para todos mis amigos de 
        Tampico.
    
    
      |----------------------------------------------------------------------7-8/9-7-8-7-------|
      |--10/12-8-10-8-8--6/8-8--10-8------------------7/888-7/888-7/888-7/88-------------8/9-8-|
      |------------------------------9-7--------------6/777-6/777-6/777-6/77-------------------|
      |---------------------------------9-7-5-7/9-3-5------------------------------------------|
      |----------------------------------------------------------------------------------------|
      |----------------------------------------------------------------------------------------|
  • |----------------------------------------------------------------------
    |----------------------------------------------------------------------
    |----------------------------------------------------------------------
    |---------5--7-----------5--7-----------5--7-----------5--8-----5------
    |---7-/7-----------7-/7-----------7-/7-----------7-/7-----8-----5------
    |---0--0--------0--0--0--------0--0--0--------0--0--0-----6--0--3--0---
    |            p.m.           p.m.           p.m.            p.m.  sim. 
    |
    guitarra 2
    |----------------------------------------------------------------------
    |----------------------------------------------------------------------
    |----------------------------------------------------------------------
    |------------------------------2--------------------------9--8--7------
    |------------------------------2--------------------------9--8--7------
    |------------------------------0--------------------------7--6--5--0---
    
    
    Guitar I
    Riff A
    |----------------------------------------------------------------------
    
  • HOLA!!!!! ESTA CANCION NO ME LATE MUCHO, PERO LA TAB
    ES PARA DARLE ENVIDIA A LUIS DANIEL, GRAN FANATICO DE LOS
    ENANITOS VERDES, ESCUCHENLA BIEN,LLEVA ARREGLOS Y FIGURAS
    NOS VEMOS.
    
    
    VERSO
    
    G-----------------------------
    D-----------------------------
    A----------------22-22--------
    E-5-55-5-55-2-22--------------
    
    G-----------------------------
    D-----------------------------
    A-5-55------2-22--7-0567------
    E------5-55-------------------
    
    TE CONOCI SIN SABER.......
    
    G-----------------------------------------------
    D----------------------------------7--4---------
    A------------66666666---------5h77---7---7------
    E-5555555555----------55555555------------------
    
    G----------------------------------------------------
    D---------------------77777777-8888888-99999999------
    A------------66666666--------------------------------
    E-5555555555-----------------------------------------
    
    SOLO DE BAJO
    
    G--------------------4h6424---------
    D-------2-42-----------------------
  • +
    ¡Colabora con nosotros!
    Envíanos tu versión de esta canción

Letra de No me verás
No me veras, no me veras
abrazado recuerdos
la vida es demasiado corta
para vivirla en el pasado.
1)
No me veras, no me veras
si algun dia caigo
no quiero que te pongas triste
si yo estoy mal, de verme mal.
No me veras, no me veras
Pidiendote revancha
todo lo que pueda pasarnos
si somos sinceros, esta bien.
Te conoci sin saber
que yo te iba a querer
de esta manera.
3)
Y ahora estoy muy feliz
porque te tengo a ti
por vez primera.
Voy a amarte.
1)
No me veras, no me veras
ocultando sentimientos
no voy a ser mas fuerte o mas debil
2)
No me veras, no me veras
levantando banderas
si al fin este mundo es uno
yo quiero un mundo, no quiero tres.
Te conoci sin saber...
No me veras
No me veras...




[No me verás chords][No me verás cifra]
© LaCuerda.net · aviso legal · privacidad · es · en · pt · contacto