Acordes de Guitarra » E »Enanitos Verdes » Hombre Vegetal (Tab)

Hombre Vegetal
Enanitos Verdes

Letras, Acordes y Tabs para Guitarra, Bajo y Ukulele

  • E-------------------------
    B-------------------------
    G-------------------------
    D-------------------------  LUEGO DE ESTO ENTRAS EN LOS ACORDES
    A-----------5-------------    SI Y LA
    E----2---5----------------
    
    SI          LA   SI       LA
    Como describir este momento
    SI        LA       SI      LA
    si apenas yo te empiezo a conocer
    SI           LA   SI        LA
    veo que tambien estás muy sola
    SI           LA    SI      LA
    y no tenemos nada que perder
    
    
    SOL              LA
    Corre savia por mis venas
    SOL            LA
    
  • E--2------     Despues sigue:
    A----0-2--        Si, LaMayor
    D---------
    G---------
    B---------
    e---------
    
    E--------------------------------
    A--------------------------------
    D---------------------------4h2-0
    G--7h9------------------4v-------
    B-------5h7-5h7-5h7---3----------
    e--------------------------------
    
    E--------------------------------------
    A--------------------------------------
    D--------------------------------------
    G-2-4----------------------------------
    B------3-5-5slide-7-7v-10h11-10h11-10v-
    e--------------------------------------
    
  • +
    ¡Colabora con nosotros!
    Envíanos tu versión de esta canción

Letra de Hombre Vegetal
Como describir este momento
si apenas yo te empiezo a conocer
veo que tambien estás muy sola
y no tenemos nada que perder
Corre savia por mis venas
te aclaro que yo soy
un hombre vegetal\
AMBAS ESTROFAS VAN CON EL ACORDE LA CON EL WAH
un hombre vegetal/
LUEGO ENTRA UN SOLO
no quiero saber nada de moda
el verde es mi color fundamental
y si alguna gente me provoca
es porque yo me muestro natural
clorofila cloromina es mi necesidad
para sobrevivir al hombre vegetal
LlENARE MIS OJOS DE TU LUMINOSIDAD
PERO NO DEJARÉ DE SER
LUEGO DE ESTA ESTROFA TODO CONTINUA COMO LOS ACORDES DE ARRIBA




[Hombre Vegetal chords][Hombre Vegetal cifra]
© LaCuerda.net · aviso legal · privacidad · es · en · pt · contacto