Acordes de Guitarra » E »Enanitos Verdes » A las tres (Tab)

A las tres
Enanitos Verdes

Letras, Acordes y Tabs para Guitarra, Bajo y Ukulele

  • Em7 - C#m7/b5 - Cmaj7 - D
    Cmaj7 -Dsus4
    
    PARTE A
              Em7            C#m7/b5    Cmaj7       D
    Sé que muchos no me quieren por aquí,
    
          Em7      C#m7/b5    Cmaj7    D
    Pero no hay trabajo donde yo nací,
    
        Em7       C#m7/b5
    Se termina la jornada,
    
          Cmaj7      Bm7
    El sol dice hasta mañana,
    
         Am7                B7
    Y las nubes se devuelven hacia el Sur.
    
    
    
  • INTRO: Em LA7 C SIm7 C D
    
           Em            LA7         C   SIm7
    Sé que muchos no me quieren por aquí,
            Em           LA7       C   SIm7
    Pero no hay trabajo donde yo nací,
          Em          LA7
    Se termina la jornada,
            C          SIm7
    El sol dice hasta mañana,
           Am                        B7
    Y las nubes se devuelven hacia el Sur.
    
    
           Em       LA7       C    SIm7
    Tengo una cama para descansar,
           Em       LA7          C   SIm7
    Y una foto tuya si quiero soñar,
          Em           LA7
    Voy a serte muy sincero,
    
  • INTRO: Em A7 C D x2
    
           Em            A7         C   D
    Sé que muchos no me quieren por aquí,
            Em           A7       C   D
    Pero no hay trabajo donde yo nací,
          Em          A7
    Se termina la jornada,
            C          Bm7
    El sol dice hasta mañana,
           Am                        B7
    Y las nubes se devuelven hacia el Sur.
    
    
           Em       A7       C    D
    Tengo una cama para descansar,
           Em       A7          C   D
    Y una foto tuya si quiero soñar,
          Em           A7
    Voy a serte muy sincero,
    
  • solo:
    
    e------------------------------------------------------------------------
    B-1415-15--------------------------10h11h12------10h11h12----10---------
    G----------11h12h13--13p10p11-12-14----------12-9----------12----11------
    D------------------------------------------------------------------------
    A------------------------------------------------------------------------
    E------------------------------------------------------------------------
    
    e-----17--15-14-12--14H15H1719--15-14-15-17-14-----------
    B--15-------------------------------------------15--------
    G--------------------------------------------------14~----
    D---------------------------------------------------------
    A---------------------------------------------------------
    E---------------------------------------------------------
    
    e-----------15-------------------------------------------
    B--------15------12-15-----------------------------------
    G--15/14---------------14---12/1112--------11-----------
    D---------------------
  • +
    ¡Colabora con nosotros!
    Envíanos tu versión de esta canción

Letra de A las tres
Sé que muchos no me quieren por aquí,
Pero no hay trabajo donde yo nací,
Se termina la jornada,
El sol dice hasta mañana,
Y las nubes se devuelven hacia el Sur.
Tengo una cama para descansar,
Y una foto tuya si quiero soñar,
Voy a serte muy sincero,
Aunque se gana buen dinero,
Nunca en mi vida yo sentí esta soledad.
Los domingos a las tres
Sabes que te llamaré
Para mi oír tu voz
Es la fuerza, las ganas de seguir.
INTERLUDIO
El entusiasmo algunas veces se me va,
Con la rutina masticando mi verdad,
Y aunque el trabajo sea pesado,
Yo me la aguanto y no me rajo,
Es lo mejor que puedo hacer para lo dos.
Los domingos a las tres
Sabes que te llamaré
Para mi oír tu voz
Es la fuerza, las ganas de seguir.
PIANO
Los domingos a las tres
Sabes que te llamaré
Para mi oír tu voz
Es la fuerza, las ganas de seguir.
Para darte algo mejor
Es que yo llegué hasta aquí
A ganar con mi sudor
Lo que tantas veces te prometí. Te prometí
Te prometí
Te prometí
PD: C#m7/b5 )=Em/C#




[A las tres chords][A las tres cifra]
© LaCuerda.net · aviso legal · privacidad · es · en · pt · contacto