Acordes de Guitarra » E »En Espiritu y en Verdad » Rey de gloria (Tab)
  • Letra y Acordes
      E
    Quién es el Rey de gloria
           A
    Me persigue con su amor
      E
    Me asombran sus palabras
          A
    Susurrando en mi interior
           A
    Mi conciencia me recuerda
        C#m
    Necesito su perdón
          B
    Quién es el Rey de gloria
    A                 E
    Que me lo ofrece hoy
    
    
    Estrofa II
    
    
  • Tablatura
      e|--------------------------------------------------------7-9-7-9-11|
      B|-10-10---------9-12-9-12-12-9-9-12-12-9-9-12-12/14-12-9-----------|
      G|------11-9-9-11---------------------------------------------------|
      D|------------------------------------------------------------------|
    
    
      e|-7-7-7------------------------------------------------------------|
      B|------9-9-7-9--7-9-7-5/7-5----5-7-7/9-7-5-------------------------|
      G|-------------9----------------------------------------------------|
      D|------------------------------------------------------------------|
    
    
    
    Estrofa
    
      E
    Quién es el Rey de gloria
           A
    Me persigue con su amor
      E
    
  • +
    ¡Colabora con nosotros!
    Envíanos tu versión de esta canción

Letra de Rey de gloria
Quién es el Rey de gloria
Me persigue con su amor
Me asombran sus palabras
Susurrando en mi interior
Mi conciencia me recuerda
Necesito su perdón
Quién es el Rey de gloria
Que me lo ofrece hoy
Estrofa II
Oh Rey del universo
Y príncipe de paz
Revelándome los cielos
Los misterios que en El hay
Mi espíritu anhela
De su gracia y su verdad
Quién es el Rey de gloria
Hijo de hombre, Hijo de Dios
Su nombre es Cristo
Oh Cristo
Dios poderoso
Rey de mi ser
El Rey de Gloria
Estrofa III
Quién es el Rey de Gloria
Con poder y majestad
Es sabio sin medida
Es el Rey de amor y paz
El Señor del cielo y tierra
Y el único creador
El es el Rey de gloria
Es todo para mí
Los invito a mi foro de músicos:
www.musicoscristianos.foroactivo.net



© LaCuerda.net · aviso legal · privacidad · contacto
DINAMICO