Acordes de Guitarra » E »Emmanuel Horvilleur » 19 (Tab)

19
Emmanuel Horvilleur

Letras, Acordes y Tabs para Guitarra, Bajo y Ukulele

  • C#m   C          E         A#m     A     Am
    Nena, 19 son tus años y tu colección
    G#m           D#          B         F         E      A
    tienes tantos novios como novias ha tenido dios..
    
    
    INSTURMENTAL
    E / Amaj7  x2
    
    
           E                  Amaj7
    nena yo no fui, el que te mando a matar
           E                  Amaj7
    lo entendiste mal, no te quise lastimar
    A                Bm        C#m       D     C#m       Am       A
    Pues nena lo entendiste mal yo no quise matar.. Lo nuestro..
    
    
    INSTURMENTAL MID
    E / Amaj7  x2
    
  • C#m  C/C#m      B/C#m
    Nena, 19 son tus años
              A#/C#m  A/Am
    y tu colección
    G#m           G/G#m
    tienes tantos novios
         F#/G#m     F/G#m  E
    como novias ha tenido dios
    
       E  A (x2)
    
          E
    Nena, yo no fui
            A
    el que te mando a matar
             E
    lo entendiste mal
            A
    no te quise lastimar
    
    
  • C#m  C/C#m      B/C#m
    Nena, 19 son tus anios
              A#/C#m  A/Am
    y tu coleccion
    G#m           G/G#m
    tienes tantos novios
         F#/G#m     F/G#m  E
    como novias ha tenido dios
    
    Riff:
    Acordes:  E     A (x2)
    Punteo:
    e|----------------------------------------------------------12----------|
    B|--12/14--12--------------12/14--12-------------------12/14------------|
    G|--11/13--11--13p11-13----11/13--11-13p11-13--11---------------13p11-13|
    D|------------------------------------------------14--------------------|
    A|----------------------------------------------------------------------|
    E|----------------------------------------------------------------------|
    
    e|----------------------------------------------------------------------|
    
  • C#m  C/C#m      B/C#m
    Nena, 19 son tus años
              A#/C#m  A/Am
    y tu colección
    C#m             C/C#m
    tienes tantos novios
         B/C#m              A/Am
    como novias ha tenido dios
    
    
    Guitarra 1:
    e|-7/9-7------------7/9-7---------------------|
    B|---------9-7-9------------9-7-9--7----------|
    G|-------------------------------------9------|
    D|--------------------------------------------|
    A|--------------------------------------------|
    E|--------------------------------------------|
    
    
    e|--7/9-12----------7/9-7---------------------|
    
  • +
    ¡Colabora con nosotros!
    Envíanos tu versión de esta canción

Letra de 19
Nena, 19 son tus años
A#/C#m A/Am
y tu colección
tienes tantos novios
como novias ha tenido dios
Nena, yo no fui
el que te mando a matar
lo entendiste mal
no te quise lastimar
Pues nena lo entendiste mal
yo no quise matar,
lo nuestrooooo..OhOhOh
Y en la soledad
de mi cuestión emocional
tuve un plan genial
no lo voy a confesar
Pues nena lo entendiste mal
yo no quise matar
lo nuestrooooo OhOhOh
lo nuestrooooo..OhOhOh
Pues nena lo entendiste mal
yo no quise matar
lo nuestrooooo OhOhOh [X3]




[19 chords][19 cifra]
© LaCuerda.net · aviso legal · privacidad · es · en · pt · contacto