Acordes de Guitarra » E »Ella Baila Sola » Por Tí (Tab)

Por Tí
Ella Baila Sola

Letras, Acordes y Tabs para Guitarra, Bajo y Ukulele

  • C                     G
    Yo te quiero regalar palabras
    Am                    G
    ser tu red para cuando caigas
    F           C           G
    cogerte de la mano al andar.
    C                   G
    Y decirte cosas al oido
    Am                      G
    ser tu manta cuando tengas frío
    F              C         G
    y ser tu hombro para llorar.
    
    Coro:
    C
    Por ti mi vida entrego
    F           G      C     G - F
    por un momento de verte sonreir
    C
    por ti mi alma vendo
    
  • POR TI      (E.B.S)
    
      
    C                                        C/B
    Yo te quiero regalar palabras
    Am                                    Am/G
    ser tu red para cuando caigas
    F             D/F#               G     G7
    cogerte de la mano al andar
    y decirte cosas al oído
    ser tu manta cuando tengas frío
    y ser tu hombro para llorar
    
                   C
    Por ti mi vida empeño
    A/B  Am         
    por un momento
    Am/G  F        C     
    de verte sonreir
    por ti mi alma vendo
    
  • C                 G
    Yo te quiero regalar palabras
    Am                Em                    
    ser tu red para cuando caigas
    F             C               G    
    cogerte de la mano al andar
    y decirte cosas al oído
    ser tu manta cuando tengas frío
    y ser tu hombro para llorar
    
                   C
    Por ti mi vida empeño
    F
    por un momento
       C       G    F 
    de verte sonreir
           C
    por ti mi alma vendo
    F            G
    a cambio del tiempo
    
  • Yo te quiero regalar palabras..
    
    e-3-3-3-3-3-3-3--1-0-1----------------------------
    b-------------------------------------------------
    g-------------------------------------------------
    d-------------------------------------------------
    a-------------------------------------------------
    E-------------------------------------------------
    
    Ser tu red para cuando caigas...
    
    e------------0-------------------------------------
    b-1-1-1-1--3---3-1-3-------------------------------
    g-------------------------------------------------
    d-------------------------------------------------
    a-------------------------------------------------
    E-------------------------------------------------
    
    Cogerte de la man al andar..
    
    e----------0-3-0-3------------------------------------
    b-------1------------------------------------------
    g-2-2-2--------------------------------------------
    d-----------------------------------------------
    a------------------------------------------------
    E---
  • +
    ¡Colabora con nosotros!
    Envíanos tu versión de esta canción

Letra de Por Tí
Yo te quiero regalar palabras
ser tu red para cuando caigas
cogerte de la mano al andar.
Y decirte cosas al oido
ser tu manta cuando tengas frío
y ser tu hombro para llorar.
Por ti mi vida entrego
por un momento de verte sonreir
por ti mi alma vendo
a cambio del tiempo que necesites para ser feliz.
Dejo todo por un beso tuyo
quiero ser tu espada y tu escudo
decirte que te quiero una vez mas.
Quiero ser tus alas y tu cielo
quiero ser el mar y tu velero
el suelo y tus pies para caminar.




[Por Tí chords][Por Tí cifra]
© LaCuerda.net · aviso legal · privacidad · es · en · pt · contacto