Tablatura para Bajo de Elefante: Asi Es La Vida
Conexión · Inscripción
Letras y Acordes
Pantalla Completa
Imprimir
Versión Texto
Añadir Favorito
Otras Versiones

Mostrar Diagramas
Desfile Automático
Formato del Texto


Asi Es La Vida(BAJ)

Elefante

calidad:
elft0025
AUTOR: Rafa, Reyli
ALBUM: El Que Busca Encuentra (01)
Enviado por juan
versos:
     solm            dom                       re7                 solm
4:-3-6---3-6--------------------------------3-6---3-6----
3:-----5------5----------------------------------5-----5--
2:---------------3-6----3-6----5------5-------------------
1:--------------------5------5----4-7---4-7---------------


puente:

    y que te quise demasiado                            
4:---3-3---3-3---1------1------
3:-3-----3----------3-3---3-3--
2:-------------------------------
1:-------------------------------


     y que nadie te a querido como yo
4:-------------------------------
3:-5---5-3-5---5-3-5---5-3-5--
2:---4--------4-------4---------
1:-------------------------------

coro:
     solm                          dom                         fa                           re7
4:-3-3-6----3-3-6----------------------1-1-----1-1-----------------------
3:--------5---------5-3-3-6---3-3-6--------0-3-----0-3-5-5-----5-5-----
2:---------------------------5--------5-----------------------4-7-----4-7-
1:--------------------------------------------------------------------------


solos:

4:-3-6---3--6---------------1-----1--3-------------------------5-3--
3:-----5---5---3-6---3---6---0-3---0--5-----5---7-5-6-5-3-1-------
2:------------------5---5-----------------4-7---4--------------------
1:---------------------------------------------------------------------

esa estoda la rola, asi que a ponerle power
por que ya saben.................. asi es la vida

<-----------------
Este fichero es trabajo propio de su transcriptor y representa su interpretación personal de la canción. El material contenido en esta página es
para exclusivo uso privado, por lo que se prohibe su reproducción o retransmisión, así como su uso para fines comerciales.

© LaCuerda.net · Aviso Legal · Privacidad