Tablatura para Guitarra de Elefante: Asi Es La Vida
Conexión · Inscripción
Letras y Acordes
Pantalla Completa
Imprimir
Versión Texto
Añadir Favorito
Otras Versiones

Mostrar Diagramas
Desfile Automático
Manipular Acordes
Formato del Texto


Asi Es La Vida(TAB)

Elefante

calidad:
elft0024
AUTOR: Rafa, Reyli
ALBUM: El Que Busca Encuentra (01)
Enviado por Christian
Version Acustica

INTRO

e|---------6-5---------------6-5--------------------------------------------------------|
B|-------8-----8-6---------8-----8-6----------------------------------------------------|
G|-----8-----------8-----8-----------7--7-7-7/8-8-7-7-7------------------------------7--|
D|--10----------------10--------------------------------7--10-10-10-10-10-8-8-7-8-10----|
A|--------------------------------------------------------------------------------------|
E|--------------------------------------------------------------------------------------|

e|---------6-5---------------6-5--------------------------------------------------------|
B|-------8-----8-6---------8-----8-6----------------------------------------------------|
G|-----8-----------8-----8-----------7--7-7-7/8-8-7-7-7---------------------------------|
D|--10----------------10--------------------------------7--10-10-10-10-10-8-8-7h8p8-5---|
A|--------------------------------------------------------------------------------------|
E|--------------------------------------------------------------------------------------|


Que no quieres nada mas de mi,
que te fuiste con ese infeliz, que importa,             que importa

e|-------3--------------------------------------------------|
B|-------3--------------------------------------------------|
G|-------3----------------------------------------3-0-------|
D|-------5------------------------------------3-5------3h5--|
A|-------5--------------------------------3-5---------------|
E|-------3--------------------------------------------------|

que me va a matar la depresión, que voy a vivir en el alcohol
que importa,            que importa

e|------------------------------------------------|
B|----------4p3p1-3------------------4-4-4p3------|
G|------------------5-3----------------------5-3--|
D|------------------------------------------------|
A|------------------------------------------------|
E|------------------------------------------------|

que te fuiste sin decir adios, que no dormiras en mi colchon
que importa,                  que importa

e|----------6-6-6p5-5-5p3-3-3------|
B|----------------------------6-4--|
G|---------------------------------|
D|---------------------------------|
A|---------------------------------|
E|---------------------------------|

que ensuciaste mi reputacion, que te vale madres este amor
que importa,               que importa

e|--------------------------------------------|
B|-----------6-------------------------6------|
G|-------5/7---7-5-3---3-----------5/7---7-7--|
D|-------------------5------------------------|
A|--------------------------------------------|
E|--------------------------------------------|

que te quiseeeeeee demasiado            y que madie te ha querido como yo

e|--------8p6---------------10p8--------|
B|------------8-8----------------10-10--|
G|--------------------------------------|
D|--------------------------------------|
A|--------------------------------------|
E|--------------------------------------|

Asi es la vida, de caprichosa, a veces negra, a veces rosa

e|---------------------------------------------------------------|
B|----------------3-4-3------------3-4-3--------4-3-4-6-4--------|
G|---3-5-5/7----3-------3---3----3-------3---3------------5---5--|
D|-5----------5-----------5----5-----------5----------------5----|
A|---------------------------------------------------------------|
E|---------------------------------------------------------------|

asi es la vida jacarandosa, te quita, te pone, te sube, te baja y a veces te lo da

e|------------------------------------2---2-3-2--------2---2-3-2--|
B|------1-3-1------------1-3-1----------3-------3-1-3----3--------|
G|----2-------2---2----2-------2---2------------------------------|
D|--3-----------3----3-----------3--------------------------------|
A|----------------------------------------------------------------|
E|----------------------------------------------------------------|


SOLO

Asi es la vida

e|--5-6-5h6p6------------5-6-5h6p5--------------5-6-6/8-8---------------|
B|------------3-3---3--3-----------3-3---3--3-3------------4-4-4-4-3-4--|
G|----------------5--------------------5--------------------------------|
D|----------------------------------------------------------------------|
A|----------------------------------------------------------------------|
E|----------------------------------------------------------------------|

e|--------------------------------------5-6-8-8--8-8-6--6-6-5--5-5-3--3-3-2-3-2h3p2--|
B|-----------------------------------------------------------------------------------|
G|--3-3-3-3-2-0----2-2-2-3-5-7-8-8-7-8-----------------------------------------------|
D|--------------3--------------------------------------------------------------------|
A|-----------------------------------------------------------------------------------|
E|-----------------------------------------------------------------------------------|


Que me desangraste el corazon que te hara justicia la nacion
que importa,            que importa

e|---------------------------------|
B|---------------------------------|
G|--------------3-3-0--------------|
D|----------3-5-------5p3---3h5-5--|
A|------3/5---------------5--------|
E|---------------------------------|

que tu vida es como un carnaval que tarde o temprano volveras
que importa,            que importa

e|-----------------------------|
B|-----------------------------|
G|------5p3--------------------|
D|----------5-3-0-3-0-3-0-3/5--|
A|-----------------------------|
E|-----------------------------|

que te quiseeeeeee       demasiado

e|---------------6-8/10------------8p7-8-8/9-8--|
B|--------4--6-8--------------------------------|
G|----------------------------------------------|
D|----------------------------------------------|
A|----------------------------------------------|
E|----------------------------------------------|

y que nadie te ha querido como yo

e|-----------------------------10-10-10-8-----|
B|----------------------------------------10--|
G|--------------------------------------------|
D|--------------------------------------------|
A|--------------------------------------------|
E|--------------------------------------------|

Asi es la vida, de caprichosa, a veces negra, a veces rosa
asi es la vida jacarandosa, te quita, te pone, te sube, te baja y a veces te lo da

Asi es la vida, escuchame negra,        me dejaste esperando.....

e|----5-6-3---------------------3-5-6-3--------------------3-5-8-8-8--|
B|----7-8-3---------------------3-7-8-3--------------------3-7-6-8-8--|
G|--------------------------------------------------------------------|
D|--------------------------------------------------------------------|
A|--------------------------------------------------------------------|
E|--------------------------------------------------------------------|


Notas:

Intro Cm, Gm, D7, Gm
Versos Gm, Cm, D7
Coro Gm, Cm, F, D7 Cualquier comentario escribanmelo a mi mail.
Este fichero es trabajo propio de su transcriptor y representa su interpretación personal de la canción. El material contenido en esta página es
para exclusivo uso privado, por lo que se prohibe su reproducción o retransmisión, así como su uso para fines comerciales.

© LaCuerda.net · Aviso Legal · Privacidad