Tablatura para Guitarra de Elefante: Asi Es La Vida
Conexión · Inscripción
Letras y Acordes
Pantalla Completa
Imprimir
Versión Texto
Añadir Favorito
Otras Versiones

Mostrar Diagramas
Desfile Automático
Manipular Acordes
Formato del Texto


Asi Es La Vida(TAB)

Elefante

calidad:
elft0023
AUTOR: Rafa, Reyli
ALBUM: El Que Busca Encuentra (01)
Enviado por Héctor
Hola, se que esta cancion ya está en el atame,
solo quiero incluir esta versión del disco de
Sesión Acústica, la cual es muy buena y suena
muy 'unplugged'.

Si tienen correcciones, mandenlas a mi correo.

Acordes:
Gm Cm7 F D7 D7* e*---3---*---3---*---1---*---2---*---3---*
B*---3---*---4---*---1---*---1---*---1---* G*---3---*---3---*---2---*---2---*---2---*
D*---5---*---5---*---3---*---0---*---0---* A*---5---*---3---*---3---*---x---*---x---*
E*---3---*---x---*---1---*---x---*---x---* Intro:
Cm7 Gm D7 Gm e*-----3-6-5-3------------3-6-5-3----------------------------------------
B*-4-6---------6-4----3-4---------6-3---3-3-3h4-4-3-3----------------1-3- G*-----------------------------------------------------5-5-5-3-3-2-3-----
D*-----------------------------------------------------------------------
A*-----------------------------------------------------------------------
E*-----------------------------------------------------------------------
Cm7 Gm D7 Gm -----3-6-5-3------------3-6-5-3------------------------------------------* -4-6---------6-4----3-4---------6-3---3-3-3h4-4-3-3----------------------* ----------------------------------------------------5--5-5-5-3-3-2h3p2-0-* -------------------------------------------------------------------------* -------------------------------------------------------------------------* -------------------------------------------------------------------------* Verso:
Gm Que no quieres nada más de mí
Gm Que te fuiste con ese infeliz
Cm7 Que importa, que importa e*----------------------------*
B*----------------------------* G*------3---------------------*
D*--3h5---5----3h5------------*
A*----------------------------*
E*----------------------------*
D7 Que me va a matar la depresión Que voy a vivir en el alcohol
Gm Que importa, que importa e*----------------------------*
B*--4p3--3---------4-4p3------* G*---------5-3-----------5-3--*
D*----------------------------*
A*----------------------------*
E*----------------------------*
Gm Que te fuiste sin decir adiós Que no dormirás en mi colchón
Cm7 Que importa, que importa e*--6-6-6---5-5-5---3-3-3-------*
B*-------------------------6-4--*
G*------------------------------*
D*------------------------------*
A*------------------------------*
E*------------------------------*
D7 Que ensuciaste mi reputación Y que te vale madres este amor
Gm Que importa, que importa e*-------------------------------------------*
B*-------6--------------------------6--------* G*--5s7-----7--5s3-----3---------7-----7--7--*
D*------------------5------------------------*
A*-------------------------------------------*
E*-------------------------------------------*
Cm7 F Que te quise demasiado e*--8p6-----------10p8----------*
B*------8-8------------10-10----*
G*------------------------------*
D7 Y que nadie te ha querido como yo e*-------------------------
B*------------------------- G*----------6b-------------
D*----5--7-----------------
A*-------------------------
E*------------------------- Coro 1:
Gm Así es la vida, de caprichosa e*-------------------------------------------------*
B*------------3-4-3-----------------3-4-3----------* G*----------3-------3---3---------3-------3---3----*
D*--------5-----------5---------5-----------5------*
A*-------------------------------------------------*
E*-------------------------------------------------*
Cm7 A veces negra, a veces rosa e*-------------------------------------------------*
B*-----------4-6-4-----------------4-6-4-----------* G*---------3-------3---3---------3-------3---3-----*
D*-------5-----------5---------5-----------5-------*
A*-------------------------------------------------*
E*-------------------------------------------------*
F Así es la vida, jacarandosa e*-------------------------------------------------*
B*------------1-3-1----------------1-3-1-----------* G*----------2-------2---2--------2-------2---2-----*
D*--------3-----------3--------3-----------3-------*
A*-------------------------------------------------*
E*-------------------------------------------------*
D7 Te quita, te pone, te sube, te baja y a veces te lo da e*-----2-3-2--------------------------------2-3-2-----*
B*---1------------------------------------1-----------* G*-2------------------------------------2-------------*
D*----------------------------------------------------*
A*----------------------------------------------------*
E*----------------------------------------------------* Solo:
Gm Cm7 e*--5-6---5h6p5----------------5-6-5h6p5----------------5-6-6s8-8--
B*----------------------------------------------------------------- G*--------------7---7-5-7----7------------7-7-5-7-7---7------------
D*-----------------------------------------------------------------
A*-----------------------------------------------------------------
E*-----------------------------------------------------------------
F e*------------------------------------------------------5-6-6s8----
B*-4-4-4-4--------------------------------------------------------- G*---------------------------------------5-7-7s8-8-7-8-------------
D*------------8-8-8-8--8-7---------7-7-8--------------------------- A*-------------------------10-8------------------------------------
E*-----------------------------------------------------------------
D7 D7 - D7* - D7 - D7 e*-8-8-8---6-6-6---5-6--5h6p5--------------------------------------
B*------------------------------8-8-8--7-8-7-----------------------
G*-----------------------------------------------------------------
D*-----------------------------------------------------------------
A*-----------------------------------------------------------------
E*-----------------------------------------------------------------
Gm Que me desangraste el corazón Que me hará justicia la nación
Cm7 Que importa, que importa e*-----------------------------------*
B*-----------------------------------* G*------------3-3--------------------*
D*------3-3h5-----5-3-5p3--5-3-5-----* A*--3h5------------------------------*
E*-----------------------------------*
D7 Que tu vida es como un carnaval Que tarde o temprano volverá
Gm Que importa, que importa e*-----------------------------------*
B*-----------------------------------* G*--3s5------------------------------*
D*------0-3--0-3--0-3--0-3-5---------*
A*-----------------------------------*
E*-----------------------------------*
Cm7 F Que te quise demasiado e*----6--8b(10)--------8b(10)r-8b(10)r-8b(10)r-8---*
B*--6----------------------------------------------*
G*-------------------------------------------------*
D7 Y que nadie te ha querido como yo e*--10-10-10--8------------------*
B*---------------10--------------*
G*-------------------------------* Coro 2:
Gm Así es la vida, de caprichosa e*-------------------------------------------------*
B*------------3-4-3-----------------3-4-3----------* G*----------3-------3---3---------3-------3---3----*
D*--------5-----------5---------5-----------5------*
A*-------------------------------------------------*
E*-------------------------------------------------*
Cm7 A veces negra, a veces rosa e*-------------------------------------------------*
B*-----------4-6-4-----------------4-6-4-----------* G*---------3-------3---3---------3-------3---3-----*
D*-------5-----------5---------5-----------5-------*
A*-------------------------------------------------*
E*-------------------------------------------------*
F Así es la vida, jacarandosa e*-------------------------------------------------*
B*------------1-3-1----------------1-3-1-----------* G*----------2-------2---2--------2-------2---2-----*
D*--------3-----------3--------3-----------3-------*
A*-------------------------------------------------*
E*-------------------------------------------------*
D7 Te quita, te pone, te sube, te baja y a veces te lo da e*-----2-3-2--------------------------------2-3-2--3-5-6---*
B*---1------------------------------------1----------------* G*-2------------------------------------2------------------*
D*---------------------------------------------------------*
A*---------------------------------------------------------*
E*---------------------------------------------------------* Coro 3:
Gm Así es la vida, de caprichosa e*--3----------3--5--6-----3-------------*
B*--3---3-4-3--3--5--6-----3---3-4-3-----* G*----3----------------------3-----------*
D*---------------------------------------*
A*---------------------------------------*
E*---------------------------------------*
Cm7 A veces negra, a veces rosa e*-5--6-8-8--------------------------------------------*
B*-5--6-8-8------4-6-4-----------------4-6-4-----------* G*-------------3-------3---3---------3-------3---3-----*
D*-----------5-----------5---------5-----------5-------*
A*-----------------------------------------------------*
E*-----------------------------------------------------*
F Así es la vida, jacarandosa e*-------------------------------------------------*
B*------------1-3-1----------------1-3-1-----------* G*----------2-------2---2--------2-------2---2-----*
D*--------3-----------3--------3-----------3-------*
A*-------------------------------------------------*
E*-------------------------------------------------*
D7 Te quita, te pone, te sube, te baja y a veces te lo da e*------2-3-2----------------------------3---3---2---2-----*
B*----1------------------------------------1---1---1---1---* G*--2------------------------------------------------------*
D*---------------------------------------------------------*
A*---------------------------------------------------------*
E*---------------------------------------------------------* Coro 4:
Gm Cm7 Así es la vida, de caprichosa a veces negra a veces rosa e*---------3-x-x-x-x-x-x-3-x-x-x-x-x-x-3-3-x-x-x-x-x-6-6-6-x-x-x--*
B*---------3-x-x-x-x-x-x-3-x-x-x-x-x-x-3-4-x-x-x-x-x-4-4-4-x-x-x--* G*---------3-x-x-x-x-x-x-3-x-x-x-x-x-x-3-3-x-x-x-x-x-3-3-3-x-x-x--*
D*---------5-x-x-x-x-x-x-5-x-x-x-x-x-x-5-5-x-x-x-x-x-5-5-5-x-x-x--* A*---------5-x-x-x-x-x-x-5-x-x-x-x-x-x-5-3-x-x-x-x-x-3-3-3-x-x-x--*
E*---------3-x-x-x-x-x-x-3-x-x-x-x-x-x-3-x-x-x-x-x-x-x-x-x-x-x-x--*
F Así es la vida, jacarandosa e*-------------------------------------------------*
B*------------1-3-1----------------1-3-1-----------* G*----------2-------2---2--------2-------2---2-----*
D*--------3-----------3--------3-----------3-------*
A*-------------------------------------------------*
E*-------------------------------------------------*
D7 Te quita, te pone, te sube, te baja y a veces te lo da e*-----2-3-2--------------------------------2-3-2-----*
B*---1------------------------------------1-----------* G*-2------------------------------------2-------------*
D*----------------------------------------------------*
A*----------------------------------------------------*
E*----------------------------------------------------* Coro 5:
Gm Así es la vida, de caprichosa e*-------------------------------------------------*
B*------------3-4-3-----------------3-4-3----------* G*----------3-------3---3---------3-------3---3----*
D*--------5-----------5---------5-----------5------*
A*-------------------------------------------------*
E*-------------------------------------------------*
Cm7 A veces negra, a veces rosa e*-------------------------------------------------*
B*-----------4-6-4-----------------4-6-4-----------* G*---------3-------3---3---------3-------3---3-----*
D*-------5-----------5---------5-----------5-------*
A*-------------------------------------------------*
E*-------------------------------------------------*
F Así es la vida, jacarandosa e*-------------------------------------------------*
B*------------1-3-1----------------1-3-1-----------* G*----------2-------2---2--------2-------2---2-----*
D*--------3-----------3--------3-----------3-------*
A*-------------------------------------------------*
E*-------------------------------------------------*
D7 Te quita, te pone, te sube, te baja y a veces te lo da e*------2-3-2----------------------------3---3---2---2-----*
B*----1------------------------------------1---1---1---1---* G*--2------------------------------------------------------*
D*---------------------------------------------------------*
A*---------------------------------------------------------*
E*---------------------------------------------------------*
Gm Así es la vida e*---------3-------*
B*---------3-------* G*---------3-------*
D*---------5-------* A*---------5-------*
E*---------3-------*
Este fichero es trabajo propio de su transcriptor y representa su interpretación personal de la canción. El material contenido en esta página es
para exclusivo uso privado, por lo que se prohibe su reproducción o retransmisión, así como su uso para fines comerciales.

© LaCuerda.net · Aviso Legal · Privacidad