Acordes de Guitarra » E »E.G.O. » Mundo Perfecto (Tab)

Mundo Perfecto
E.G.O.

Letras, Acordes y Tabs para Guitarra, Bajo y Ukulele

  •      D5          G             Bm
    
    e||----       e||--3-       e||--2-
    B||--3-       B||--3-       B||--3-
    G||--2-       G||----       G||--4-
    D||----       D||----       D||--4-
    A||----       A||--2-       A||--2-
    E||--x-       E||--3-       E||--2-
    
    
    
    
    Intro: D5-Bm(x2)(en esta parte arrastren la 2da cuerda del 2do traste
                  al tercer traste en cada rasgueada..)
    
    
    
    D5                       Bm
       Me encuentro frente a ti
    D5                Bm
    
  • Hola aca Flavio xD!"
    Colaborando nuevamente con la Cuerda.net
    
    |------------------------|------------------------|
    |------------------------|------------------------|
    |-----------11-11--------|-----------11-11--------|
    |---12-12---12-12---12---|---12-12---12-12---12---|
    |---12-12---12-12---12---|---12-12---12-12---12---|
    |---10-10-----------10---|---10-10-----------10---|
    
    |------------------------|------------------------|
    |------------------------|------------------------|
    |-----------11-11--------|-----------11-11--------|
    |---11-11---11-11---11---|---11-11---11-11---11---|
    |---11-11---11-11---11---|---11-11---11-11---11---|
    |---9--9------------9----|---9--9------------9----|
    
    |------------------------|------------------------|
    |------------------------|------------------------|
    |-----------11-11--------|-----------11-11--------|
    |---12-12---12-12---12---|---12-12---12-12---12---|
    |---12-12---12-12---12---|---12-12---12-12---12---|
    |---10-10-----------10---|---10-10-----------10---|
  • +
    ¡Colabora con nosotros!
    Envíanos tu versión de esta canción

Letra de Mundo Perfecto
al tercer traste en cada rasgueada..)
Me encuentro frente a ti
no se como decirte lo que siento
poderte abrazar
es lo unico que intento
no me falta voluntad
para regalarte lo que siento
pero tengo temor
eres la unica ilusion que tengo…
Coro1:
Y se lo que quieras tu …
Decirte al oido que sin ti…
No habra razon no…
Y se lo que quieras tu…
Todos los caminos me llevan a ti
Inventando una historia a tu lado
Estar contigo en el fin
Y decirte que
Coro2:
Puedo ser lo que quieras tu …
Decirte al oido que sin ti…
No habra razon no…
Y se lo que quieras tu…(x2)
Seria mi mundo perfecto si
Vivieras en mi corazon
Seria mi mundo perfecto si
Vivieras en mi corazon
Coro2:
Y se lo que quieras tu …
Decirte al oido que sin ti…
No habra razon no…
Y se lo que quieras tu…(x2)
Mi mundo perfecto tu…(x2)

Video de Mundo Perfecto
[]




[Mundo Perfecto chords][Mundo Perfecto cifra]
© LaCuerda.net · aviso legal · privacidad · es · en · pt · contacto