Acordes de Guitarra » E »E.G.O. » Infinito (Tab)

Infinito
E.G.O.

Letras, Acordes y Tabs para Guitarra, Bajo y Ukulele

  • Intro: G#m9-A5-E-B5(x4) (Segunda guitarra)
    
    
          G#m     A5     E     B5
    e||-------------------0----------
    B||-----4------0-------0-----2---
    G||------4----2-2----1--------4--
    D||--4/6-----2------2-----2/4----
    A||-4-------0------2-----2-------
    E||------------------------------ x2 (Primera guitarra)
    
    
    C#m
       Como puedo explicar
    B
       el universo hoy
    C#m                          B
       si contigo el infinito empieza
    C#m                       B
       como puedo resistir un dia mas sin ti
    
  • Intro: G#m9-A5-E-B5(x4)
    
    
          G#m     A5     E     B5
    e||-------------------0----------
    B||-----4------0-------0-----2---
    G||------4----2-2----1--------4--
    D||--4/6-----2------2-----2/4----
    A||-4-------0------2-----2-------
    E||------------------------------
    
    
    C#m
       Como puedo explicar
    B
       el universo hoy
    C#m                          B
       si contigo el infinito empieza
    C#m                       B
       como puedo resistir un dia mas sin ti
    
  • Intro: G#m9-A5-E-B5(x4) (Segunda guitarra)
    
    
          G#m     A5     E     B5
    e||-------------------0----------
    B||-----4------0-------0-----2---
    G||------4----2-2----1--------4--
    D||--4/6-----2------2-----2/4----
    A||-4-------0------2-----2-------
    E||------------------------------ x2 (Primera guitarra)
    
    
    C#m
       Como puedo explicar
    B
       el universo hoy
    C#m                          B
       si contigo el infinito empieza
    C#m                       B
       como puedo resistir un dia mas sin ti
    
  • +
    ¡Colabora con nosotros!
    Envíanos tu versión de esta canción

Letra de Infinito
Como puedo explicar
el universo hoy
si contigo el infinito empieza
como puedo resistir un dia mas sin ti
ruego al tiempo que vuelva por ti
no es tan dificil si tu estas
se mi historia sin final
se el amor de mi voz
vuelve siempre sin dudar
no es tan dificil si tu estas
se el amor de mi voz
Intro(x2)
aunque todo este distinto
entre tu y yo
siempre firme aqui yo sigo en ti
no es tan dificil si tu estas
se mi historia sin final
se el amor de mi voz
vuelve siempre sin dudar
no es tan dificil si tu estas
se el amor de mi voz..yeee yeee
G:-5/9-9-9-8-5--/9-9-9-8-5-
se mi historia sin final
se el amor de mi voz
vuelve siempre sin dudar
no es tan dificil si tu estas
se el amor de mi voz

Video de Infinito
[]




[Infinito chords][Infinito cifra]
© LaCuerda.net · aviso legal · privacidad · es · en · pt · contacto