Acordes de Guitarra » E »E.G.O. » Desde el día en que te ví (Tab)

Desde el día en que te ví
E.G.O.

Letras, Acordes y Tabs para Guitarra, Bajo y Ukulele

  •  D     F#m   Gsus2 Bm7   G5    A     F#m/A
    e|-2-| |---| |---| |-2-| |-3-| |---| |-2-|
    B|-3-| |-2-| |-3-| |-3-| |-3-| |-2-| |-2-|
    G|-2-| |-2-| |-2-| |-2-| |---| |-2-| |-2-|
    D|---| |---| |---| |-4-| |---| |-2-| |---|
    A|---| |---| |---| |-2-| |---| |---| |---|
    E|-x-| |-2-| |-3-| |-x-| |-3-| |---| |---|
    
    INTRO
    e|-----------------------------------------------------------------|
    B|---------3---------------2---------------3---------------3-------|
    G|-----2-----2---2-----2-----2---2-----2-----2---2-----2-----2---2-|
    D|-0-0---0-----0---------0-----0---------0-----0---------0-----0---|
    A|-----------------------------------------------------------------|
    E|-----------------2-2-------------3-3-------------3-3-------------|(x4)
    
    D        F#m           Gsus2
    Desde el día en que te vi
    D
    todo el tiempo
    
  •        D5              F#m                   Bm
    
    
    e||---|---|---   |---|-o-|---|---    |---|-o-|---|---
    B||---|---|-o-   |---|-o-|---|---    |---|---|-o-|---
    G||---|-o-|---   |---|-o-|---|---    |---|---|---|-o-
    D||---|---|---   |---|---|---|-o-    |---|---|---|-o-
    A||---|---|---   |---|---|---|-o-    |---|-o-|---|---
    E|x              |---|-o-|---|---    |---|-o-|---|---
    
           A                G
    
    e||---|---|---   |---|---|-o-
    B||---|-o-|---   |---|---|-o-
    G||---|-o-|---   |---|---|---
    D||---|-o-|---   |---|---|---
    A||---|---|---   |---|-o-|---
    E|x              |---|---|-o-
    
    
    
  • +
    ¡Colabora con nosotros!
    Envíanos tu versión de esta canción

Letra de Desde el día en que te ví
Desde el día en que te vi
todo el tiempo
pienso en ti
sin decirle a nadie lo que siento yo lo
se
desde el día en que te vi
Cierro los ojos
esta noche voy a soñar
y te vi parada ahí
y no supe que decir
todo el tiempo
pienso en ti
y no puedo creer
lo que hiciste en mi
ahora no puedo imaginarme
sin ti dejaría todo aquí
por ti por ti
desde el día en el que te vi
susurro tu nombre
en el intento
de seguir y yo sigo tras de ti
ahora tengo que decir
todo el tiempo pienso en ti
y no puedo creer
lo que hiciste en mi
ahora no puedo imaginarme
sin ti dejaría todo aquí
por ti por ti
desde el día en el que te vi
NTRO
desde el día en que te vi
todo el tiempo pienso en ti
sin ti dejaría todo aquí
por ti por ti
desde el día en el que te vi
Símbolos de técnicas usadas:
Slide: s /
Bend: b ()
(iría arpegiada la primera estrofa y la estrofa de dos versos que
va luego del solo)
Los acordes encima de los arreglos musicales o solos son de la
guitarra rítmica.
AQUÍ EL VÍDEO DE LA BANDA Y UNAS URL DONDE LOS PUEDEN ENCONTRAR:
http://youtu.be/fX-tiYUl-Dk
http://www.facebook.com/EGOoficial
http://www.twitter.com/EGOoficial
http://www.youtube.com/EGOoficial
http://www.myspace.com/EGOoficial
FANCLUBCOLOMBIA:
http://www.facebook.com/efectoego.col
http://www.twitter.com/EfectoEGOCol
#EfectoEGOCol
#EfectoEGO

Video de Desde el día en que te ví
[]




[Desde el día en que te ví chords][Desde el día en que te ví cifra]
© LaCuerda.net · aviso legal · privacidad · es · en · pt · contacto