Acordes de Guitarra » E »Edgar Oceransky » Juro (Tab)

Juro
Edgar Oceransky

Letras, Acordes y Tabs para Guitarra, Bajo y Ukulele

  • Intro: G  Em9 x2
    
    G
    Juro que no vuelvo a hablar del tema
    Em
    porque aunque no quiera todo terminó
    G
    cada quien mañana pegará la vuelta
    Em
    hacia su destino sin decir adiós
    
    Em9
    Juro que no vuelves a escuchar mi voz
    Am7                             Am9
    no importa que estalle todo en mi interior
    Em9
    aunque yo no entienda ya esta situación
    C                          D           G  G7
    esta historia acaba porque nunca comenzó
    
    
  • Q tal, bueno la versión anterior suena bastante bien
    Pero le faltan algunos arreglos, pero la mía es una versión mejor
    Que todas las que están en la cuerda. No le puse los acordes
    Pues se me hicieron innecesarios, luego pongo la parte
    Donde se dice el poema!
    Pues les dejo mi versión esta completísima, escuchen bien la
    Canción para que puedan sacarla.
    Comentarios, peticiones les dejo mi correo:
    fernando_back154@hotmail.com
    
    
    
    Si existiera un dios preferiría que fuera mujer,
    Y así hablarle de tú y de ti y que me aconsejara,
    Preferiría que fuera mujer y que fuera mi amiga
    Y que su sexo no fuera barrera si no pretexto,
    Que fuera mujer y amiga de aquellas que dan
    La vida cada vez que lo solicitas,
    Que fuera mujer y amiga para que me escuchara
    Y me consolara y cerrara mis heridas.
    Si existiera un dios en definitiva me gustaría
    Que fuera como tú, aunque entonces… yo que haría?
    
                                          Edel Juárez
    
    
    1° ESTROFA
    
    Juro que no vuelvo a hablar del tem
  • G
    
    1 --------------------------|--------------------------|
    2 ------3-----1-----0-------|------3-----1-------------|
    3 ----0---0-----0-----0---0-|----0---0-----0---0h2-0---|
    4 --0-------0-----0-----0---|--0-------0-----0---------|
    5 --------------------------|-3------------------------|
    6 -3------------------------|--------------------------|
    
    
      G
    1 --------------------------|--------------------------|
    2 ------3-----1-----0-------|------3-----1-----0-------|
    3 ----0---0-----0-----0---0-|----0---0-----0-----0-----|
    4 --0-------0-----0-----0---|--0-------0-----0------0--|
    5 --------------------------|-3------------------------|
    6 -3------------------------|--------------------------|
      Si existiera un dios ,     y así hablarle de tu, y de tí,
      preferiria ke fuera mujer  y que me akonsejara.
    
    
  • D:-0-----------4---4-----4---4---4---4-----------4---|
    A:---------------------------------------------------|
    E:-------------------------0-------------------------|
    
    e:-------------------------------------------------------|
    b:--------3-1-0---------------------------------0--------|
    g:-------0------2-0---0---0-2---0---0---0---0-2---2-0----|
    D:------0-----------4---4-----4---4---4---4-----------4--|
    A:-0-----------------------------------------------------|
    E:---3--------------------------0------------------------|
    
    
    
    --------------Aki empieza a kantar--------------------
       G1                     Em          Em/F#    Em/G
    e:-----0----------0------------------0---2-----3-0----------|
    b:---------3----------3----------0-----0---0-------0---0----|
    g:-------0----------0----------0---0---------0-------0------|
    D:---0----------0------------2------------------------------|
    A:-------------------------2--------------------------------|
    
  • G
    Juro que no vuelvo a hablar del tema
    C                              D
    porque aunque no quiera todo terminó
    G
    Cada quien mañana se dará la vuelta
    C                    D
    hacia su destino sin decir adios
    
    Em                     Bm
    Juro que no vuelves a escuchar mi voz
    C                        D*
    no importa que estalle todo mi interior
    Em                     Bm                   1--------
    aunque yo no entienda ya esta situación     2---0H1--
     C                   D        G    G7 ----- 3--------  ESTE ES EL
    esta historia acaba porque nunca comenzó.   4-------- CAMBIO PARA
                                                5---3---- CAER EN C
     C                   D           G          6--------
    Te doy la espalda, empiezo a andar RIFF 1
    
  • +
    ¡Colabora con nosotros!
    Envíanos tu versión de esta canción

Letra de Juro
Juro que no vuelvo a hablar del tema
porque aunque no quiera todo terminó
cada quien mañana pegará la vuelta
hacia su destino sin decir adiós
Juro que no vuelves a escuchar mi voz
no importa que estalle todo en mi interior
aunque yo no entienda ya esta situación
esta historia acaba porque nunca comenzó
Te doy la espalda empiezo a andar
pero no dejo de pensar
prendo un recuerdo para evaporar tu amor
y más se inflama el corazón
Juro que no vuelves a mirar mi cara
mis manos hurgando por tu pantalón
no voy a causarte más de dos problemas
si es que alguna vez escuchas mi canción
Juro que no vuelves a escuchar mi voz
no importa que estalle todo en mi interior
aunque yo no entienda ya esta situación
esta historia acaba porque nunca comenzó
Te doy la espalda empiezo a andar
pero no dejo de pensar
prendo un recuerdo para evaporar tu amor
y más se inflama el corazón
Juro que no vuelvo a hablar del tema
porque aunque no quiera todo terminó
Acordes: EADGBe
Recomendación: ver video tutorial del mismo Edgar Oceransky en su
página de facebook o instagram




[Juro chords][Juro cifra]
© LaCuerda.net · aviso legal · privacidad · es · en · pt · contacto