Acordes de Guitarra » E »Edgar Oceransky » Como un ladrón (Tab)

Como un ladrón
Edgar Oceransky

Letras, Acordes y Tabs para Guitarra, Bajo y Ukulele

  • D                    A
    Ella no estaba lista para el amor
    G                     A
    hay cosas mucho más urgentes pensó
    D                        A       
    justo estaba por cambiar de dirección
    G                              A*
    cuando a lo lejos escuchaba su voz.
    
      Bm        F#m
    Y así se decidió
       G              A     A*     Bm
    buscarlo y por instinto lo encontró
             F#m
    cuando lo vió
      G               A
    bajo la guardia y se debilitó.
    
     (II)
    D                      A
    
  • C#*:x40455
    B* :x20233
    A* :x12020
    
    intro x2
      D           C#*     B*          A
    1---2/0-0-------5/0-----3/0-0-----------0-----
    2---------3---------5---------3-------3---3---
    3-----------2-------------------2---2-------2-
    4-0-------------------------------------------
    5-------------4-------2-----------0-----------
    6---------------------------------------------
    
    D                    C#*
    Ella no estaba lista para el amor
    G                     A
    hay cosas mucho más urgentes pensó
    D                        C#*
    justo estaba por cambiar de dirección
    G                              A*
    
  • A7/C# :x45055
    A7/A# :x12020
    Asus4 :002230
    
    intro x2
    
    1|---2p0-0-------5p0-----3p2-0-----------0-------
    2|---------3--------5----------3-----2h3---3-----
    3|-----------2------------------0------------2---
    4|-0---------------------------------------------
    5|-------------4-------2-----------0-------------
    6|-----------------------------------------------
    
    
    D                    A7/C#
    Ella no estaba lista para el amor
    G                     A
    hay cosas mucho más urgentes pensó
    D                        A7/C#
    justo estaba por cambiar de dirección
    
  • --------------3------------------------0------
    --------------3--------------------3----3-----
    -------0------------------------2--------2----
    -----------------------------2------------2---
    --------------------------0-------------------
    -3--------------------------------------------
    
      Justo estaba por cambiar de dirección
    1---------------2---------------------5-|
    2---------------3-----------------5-----|
    3--------2---------------------0--------|
    4--0-----------------------5------------|
    5-----------------------4---------------|
    6---------------------------------------|
    
     cuando a lo lejos se escuchaba su voz y así
    --------------3-------------------------------
    --------------3---------------------2-------3-
    -------0----------------------------2-------0-
    ------------------------------------2-------2-
    
  • --------------3------------------------0------
    --------------3--------------------3----3-----
    -------0------------------------2--------2----
    -----------------------------2------------2---
    --------------------------0-------------------
    -3--------------------------------------------
    
      Justo estaba por cambiar de dirección
    1---------------2---------------------5-|
    2---------------3-----------------5-----|
    3--------2---------------------0--------|
    4--0-----------------------5------------|
    5-----------------------4---------------|
    6---------------------------------------|
    
     cuando a lo lejos se escuchaba su voz y así
    --------------3-------------------------------
    --------------3---------------------2-------3-
    -------0----------------------------2-------0-
    ------------------------------------2-------2-
    
  • +
    ¡Colabora con nosotros!
    Envíanos tu versión de esta canción

Letra de Como un ladrón
Ella no estaba lista para el amor
hay cosas mucho más urgentes pensó
justo estaba por cambiar de dirección
cuando a lo lejos escuchaba su voz.
Y así se decidió
buscarlo y por instinto lo encontró
cuando lo vió
bajo la guardia y se debilitó.
(II)
La puerta se le abrió, se le paró el reloj
se le apagó la luz y entró como un ladrón,
la cama revolvió, buscando un corazón
y lo encontró mientras le hurgaba el pantalón.
(I)
El no esperaba a nadie aquella ocasión
no hay nada urgente este dia se terminó
justo iba a casa después de la función
pero alguien dijo que no se fuera no.
Así que decidió
sentarse y por instinto la esperó
cuando la vio
subió la guardia pero no aguantó.
(II)
La puerta se le abrió...
Ella se enamoró y el tiempo se apagó
desde ese día no piensa en otra cosa no,
la cara le cambió, bandido se volvió
no duerme y come a lado de su amor.
6 1
/ 7
/_(
|_| DISCULPEN SI LA LETRA NO ES LA CORRECTA EN
|_| ALGUNAS PARTES, PERO ESO ENTENDÍ. CUALQUIER
|_| COMENTARIO A MI CORREO.
|_| /\
/\|=|/ /
\ |_| /
) _ \
/ |_| \
/ -=-o /
\ /~\_/
\/




[Como un ladrón chords][Como un ladrón cifra]
© LaCuerda.net · aviso legal · privacidad · es · en · pt · contacto